Oops, an error
Loading. Please wait.

Devotion And Desire Tab

version 3
version 3

Whole song

Interactive

1,738 views 9 this week
no commentswrite comment
1 2 3 4 5
please rate
add to favorites
launch autoscroll
font size
0
reset
how to read this tab
guitar tuner
Autoscroll
slow
fast
+/-
esc
set tempo
stop
Help us to improve Ultimate-Guitar.com Take our survey!
×
Author
Difficulty
Tuning
intermediate
D A D G B E
hey

this is my version of devotion and deire

ive tabbed both guitars so hope u enjoy it
plz rate and all comments are welcome :)

intro
guitar 1
|----------1-0--------|
|--------------3-2-3--|
|--2-0----------------|
|------3-2------------|
|---------------------|
|---------------------|

guitar 2
|---------------------|
|---------------------|
|----------2-0--------|
|--3-2-0-------3-2-0--|
|--------3------------|
|---------------------|

both guitars
|-------------------------------------|
|-------------------------------------|
|--7-------7-----------6--------------|
|--7---8---7---7---8---6--------------|
|--5---8---5---7---8---4--------------|
|------8-------7---8------------------|

verse
|-------------------------------------|
|-------------------------------------|
|--7-------7-----------6--------------|
|--7---8---7---7---8---6--------------|
|--5---8---5---7---8---4--------------|
|------8-------7---8------------------|

pre-chorus
mute
|---------------------------------|
|---------------------------------|
|--7-------7-------6-----6/7------|
|--7---8---7---7---6-----6/7------|
|--5---8---5---7---4-----4/5------|
|------8-------7------------------|

chorus
pause for singing then
|----------------------------------------------------------|
|----------------------------------------------------------|
|--------------------7---------------------7/-xx-xx-xx-xx--|
|--8---5---7---5-3---7---8---5---7---5-3---7/-xx-xx-xx-xx--|
|--8---5---7---5-3---5---8---5---7---5-3---5/-xx-xx-xx-xx--|
|--8---5---7---5-3-------8---5---7---5-3-------------------|

lead bit over top
|---------------------------------------------------------------------------|
|--------------------------------8-------------------8----------------------|
|--7-10-9-10-7-10-9-10---10-9-10---10-9-10---10-9-10---10-9-7-6-7-9-7-9-10--|
|----------------------8-------------------8--------------------------------|
|---------------------------------------------------------------------------|
|---------------------------------------------------------------------------|
then play the last bit of chorus G F D and scrach

verse
|-------------------------------------|
|-------------------------------------|
|--7-------7-----------6--------------|
|--7---8---7---7---8---6--------------|
|--5---8---5---7---8---4--------------|
|------8-------7---8------------------|

pre-chorus
mute
|---------------------------------|
|---------------------------------|
|--7-------7-------6-----6/7------|
|--7---8---7---7---6-----6/7------|
|--5---8---5---7---4-----4/5------|
|------8-------7------------------|

chorus
|---------------------------------------------------|
|---------------------------------------------------|
|--7---------------------7---------------------7/---|
|--7---8---5---7---5-3---7---8---5---7---5-3---7/---|
|--5---8---5---7---5-3---5---8---5---7---5-3---5/---|
|------8---5---7---5-3-------8---5---7---5-3--------|

lead bit over top
|---------------------------------------------------------------------------|
|--------------------------------8-------------------8----------------------|
|--7-10-9-10-7-10-9-10---10-9-10---10-9-10---10-9-10---10-9-7-6-7-9-7-9-10--|
|----------------------8-------------------8--------------------------------|
|---------------------------------------------------------------------------|
|---------------------------------------------------------------------------|

solo
|-----------------------------------------------------------|
|--------13-------------------------------------------------|
|--12b13----12-14p12-10-9-10----9-------9-10----9-----------|
|----------------------------12---10-12------12---10-12-10--|
|-----------------------------------------------------------|
|-----------------------------------------------------------|

|-----------------------------------------------------------5----|
|------------------------------------------------------------5---|
|-------------------------------------------------------------6--|
|---------------------------------3---3-5b6r5-3---3-5/7-8-7------|
|--8-10-10b11r10-88-3-5-3-5~--3-5---5-----------5----------------|
|----------------------------------------------------------------|

|--10p0-8p0-6p0-5p0-3p0-6p0-5p0-3p0-8p0-6p0-10p0-8p0-12p0-10p0-12b13--|
|---------------------------------------------------------------------|
|---------------------------------------------------------------------|
|---------------------------------------------------------------------|
|---------------------------------------------------------------------|
|---------------------------------------------------------------------|

|-----------------10------------------------------------------------|
|--------------------------15-13--------------------------10-11-10--|
|--12b13r12p10-------12h14-------14-12-------------9------9--9--9---|
|--------------12----------------------11-----7h10---10-7-----------|
|-----------------------------------------5h8-----------------------|
|-------------------------------------------------------------------|

chords behind solo
|-------------------------------------|
|-------------------------------------|
|--7-------7-----------6--------------|
|--7---8---7---7---8---6--------------|
|--5---8---5---7---8---4--------------|
|------8-------7---8------------------|

guitar 1
|-------------------------------------------------------|
|-------------------------------------------------------|
|----------------------5h7------------------------------|
|--7-----------------------6--------------------8p7-----|
|--5-5-555-555-555-555-----4-4-444-444-444-444------10--|
|-------------------------------------------------------|

|---------------------------------------------------|
|---------------------------------------------------|
|---------------------------------------------------|
|--8-------------------7h8-7-------------------5h7--|
|--8-----------------------7------------------------|
|--8-8-888-888-888-888-----7-7-777-777-777-777------|

guitar 2
|---------------------------------------------------|
|---------------------------------------------------|
|---------------------------------------------------|
|--7-----------------------6------------------------|
|--5-5-555-555-555-555-7/8-4-4-444-444-444-444-7/8--|
|---------------------------------------------------|

|---------------------------------------------------|
|---------------------------------------------------|
|---------------------------------------------------|
|--8-----------------------7------------------------|
|--8-------------------7/8-7-------------------7/8--|
|--8-8-888-888-888-888-----7-7-777-777-777-777------|

both guitars
|-----------------------|
|-----------------------|
|--7---6----------------|
|--7---6---8---7--------|
|--5---4---8---7--------|
|----------8---7--------|

guitar 1
|----------1-0--------|
|--------------3-2-3--|
|--2-0----------------|
|------3-2------------|
|---------------------|
|---------------------|

guitar 2
|---------------------|
|---------------------|
|----------2-0--------|
|--3-2-0-------3-2-0--|
|--------3------------|
|---------------------|

chorus
|---------------------------------------------------|
|---------------------------------------------------|
|--7---------------------7---------------------7/---|
|--7---8---5---7---5-3---7---8---5---7---5-3---7/---|
|--5---8---5---7---5-3---5---8---5---7---5-3---5/---|
|------8---5---7---5-3-------8---5---7---5-3--------|

lead bit over top
|---------------------------------------------------------------------------|
|--------------------------------8-------------------8----------------------|
|--7-10-9-10-7-10-9-10---10-9-10---10-9-10---10-9-10---10-9-7-6-7-9-7-9-10--|
|----------------------8-------------------8--------------------------------|
|---------------------------------------------------------------------------|
|---------------------------------------------------------------------------|

outro
|----------------------------------------------------|
|--xx-xx-------xx-xx-------xx-xx-------xx-xx---------|
|--xx-xx-------xx-xx-------xx-xx-------xx-xx-----7/--|
|--xx-xx-5-3-0-xx-xx-5-3-0-xx-xx-5-3-0-xx-xx-5-3-7/--|
|--xx-xx-5-3-0-xx-xx-5-3-0-xx-xx-5-3-0-xx-xx-5-3-5/--|
|--------5-3-0-------5-3-0-------5-3-0-------5-3-----|

thats about it any probs let us know hope that helps

Suggest correction
What's this?
You can suggest a correction to this tab. Community and Mods will review your correction and vote to approve or reject it.
comments
We did not receive enough feedback on this tab! Please rate:
print report bad tab
1 2 3 4 5
guest
You may want to rate the tab now too:
select rating
Please do not post tabs as comments. Select "correction" instead!