Oops, an error
Loading. Please wait.

Dont Call Me Peanut Tab

version 1
version 1

Intro

Solo

Whole song

Interactive

8,815 views 6 this week
3 commentsread comments
1 2 3 4 5
accurate
x 4
add to favorites
launch autoscroll
font size
0
reset
how to read this tab
guitar tuner
Tab Pro tools
  • play this tab
  • loop segment
  • change instrument
  • show fretboard
  • metronome
Autoscroll
slow
fast
+/-
esc
set tempo
stop
Difficulty
novice
Tune down a whole step for it to sound great. it doesn't sound wrong without dropping
it, but it sounds better a step down. It's played the same both ways.

[------0~-----------0~-----------0~~-|-1~/4]
[------0~-----------1~-----------3~~-|-1~/4]
[------0~---------2------------4-----|-2~/5]
[----2----------3------------5-------|-3~/6]
[--3---------------------------------|-3~/6]
[------------------------------------|-1~/4]

after that I'm not perfectly clear... just fiddle around with regular chords for a
little until the chorus breaks in, but I'm not sure how to play that yet.
comments
print report bad tab
3 comments total.
0 reply
spaulding91 wrote on November 19 2005, 01:53 am

your on the right track dude. im trying to figure out how to play it as well. but so far it sounds good

0 reply
j_jay wrote on February 16 2006, 11:11 pm

Kudos to you for trying, but i think this is not quite right. in fact, i got something completely different from yours.
-----------------------------------------
------------2-------------3-----------3-- I haven't gotten
------------3---------0---2-------2---2-- very far tho so
--------0--------0------------2/3-------- i won't tab it
--0---------------5/6-------------------- out yet. NEway:
---5/6----------------------------------- standard tuning

0 reply
tizompson04 wrote on February 22 2006, 03:42 pm

the full step drop is fine, that's how it's played on the CD..

The intro is perfect also, I've been working on the end of the verse..


-----0~--------------0x----0~-
-----0~--------------1x----3~-
-----0~--------------2x----1~-
---3---------------3-------2~-
--2---------------------------
------------------------------
Cuz I've got______ so much trapped...

I don't know the part between here and the chorus, but the chorus goes as follows (the chords are picked in some manner, meh)

Am E
And when I see her
Am
I'll tell her what's been on my mind
E
All these sleepless nights
Am E
She'll recite her excuses
Am
Put my tail between these legs of mine
G
Like I do all the time..

Hope that helps a little, I've only been playing for two years and this is how I learn, so correct me if I'm a little wrong.
-Mike

I want to post or [tab]
guest
You may want to rate the tab now too:
select rating
Please do not post tabs as comments. Select "correction" instead!