Oops, an error
Loading. Please wait.

Dont Call Me Peanut Tab

version 1
version 1

Solo

Whole song

Interactive

18,719 views 3 this week
1 commentread comment
1 2 3 4 5
accurate
x 4
add to favorites
launch autoscroll
font size
0
reset
how to read this tab
guitar tuner
Autoscroll
slow
fast
+/-
esc
set tempo
stop
Help us to improve Ultimate-Guitar.com Take our survey!
×
Author
----------------------------------------------------------------------------
		    Don't Call Me Peanut - Bayside
----------------------------------------------------------------------------
Tabbed by: Keith Bowers
Email: kbowz21@hotmail.com

Tuning: 1 step down

This is the studio solo.  I posted it separate because I originally wrote a 
tab with the live solo.  So here it is.

Guitar 1
|-------------------------------------------------------------10-12-10-8---|
|-----------------------------------------------12~-12br-10--------------10|
|--------------------------------------12-------------------12-------------|
|--------------------------------10h12----10h12----------------------------|
|/15-14-12~-12---12h14p12~-10-10-------------------------------------------|
|-------------13-----------------------------------------------------------|
	
Guitar 2
|---------------------------5-5~--------------10-10~-10--------------------|
|----8-------8--------------5-5~--------------10-10~-10-----0-------0------|
|----9-------9--------------6-6~--------------11-11~-11-----0-------0------|
|------10-------------------7-7~--------------12-12~-12---2---2---2---2----|
|---------10----------------7-7~--------------12-12~-12-/3-----------------|
|---------------------------5-5~-5-5/12-11-10-10-10~-10---------3----------|

Guitar 1
|--------------------------------------------------------------------------|
|--------------------------------------------------------------------------|
|---------------9~-----------9-10-9----9----------------------------12-12~-|
|---------10h12--------10-12--------12---12-10-----------------------------|
|-------------------------------------------------------8/12\11\10---------|
|--------------------------------------------------------------------------|
                        .  .  . .  . .  . .  .         
Guitar 2
|--------------------------------------------------------------------4--4~-|
|----------------------------10--------------------------------------4--4~-|
|--9---9---------------11----11----11--------------------------------5--5~-|
|--9---9---------------12----12----12--------------------------------6--6~-|
|7---7-----------------12----12----12--------------------------------6--6~-|
|--------5-5/12-11-10--10----10----10----------------0--/6-5-4-------4--4~-|

Guitar 1
|-------------------------------------------10-10~---------4-4~------------|
|-------------------------------------------10-10~---------4-4~------------|
|-------------------------------------------11-11~---------5-5~------------|
|-------------------------------------------12-12~---------6-6~------------|
|/15-14-12-10-8-8h10p8p7-6-5----------------12-12~---------6-6~------------|
|----------------------------5~--5/12-11-10-10-10~--/6-5-4-4-4~------------|

Guitar 2
|--------------------------------------------------------------------------|
|------0---------0---------------------------------------------------------|
|------0---------0-----------9---9-----------------------------------------|
|----2----2----2----2--------9---9-----------------------------------------|
|/3------------------------7---7-------------------------------------------|
|-----------3--------------------------------------------------------------|

Guitar 1
|-------------------------------------------10-10~---------4-4~--4---------|
|------0-------0----------------------------10-10~---------4-4~--4---------|
|------0-------0------9----9~---------------11-11~---------5-5~--5---------|
|----2-2-2---2-2-2----9----9~---------------12-12~---------6-6~--6---------|
|-/3---3-------3----7----7------------------12-12~---------6-6~--6---------|
|----------3---3-----------------5/12-11-10-10-10~--/6-5-4-4-4~--4---------|

Piano comes in over vocals
	
Guitar 1				             Guitar 1   Guitar 2
|-----------------10----------11---------12--12-----|----------|-----------|
|-----------------10----------11---------12--12-----|----------|--12-13----|
|-----------------11----------12---------13--13-----|-16-17----|--12-12----|
|-----------------12----------13---------14--14-x8--|-16-17----|--12-12----|
|--------------12-12-12----13-13-13---14-14--14-----|-14-15----|--10-10----|
|-5-5/12-11-10----10----11----11----12---12--12-----|----------|-----------|


| /  slide up
| \  slide down
| h  hammer-on
| p  pull-off
| ~  vibrato
| +  harmonic
| x  Mute note
============================================================================

Peace,
Keith
Suggest correction
What's this?
You can suggest a correction to this tab. Community and Mods will review your correction and vote to approve or reject it.
comments
print report bad tab
1 comment total.
0 reply
anticky 110 wrote on January 6 2007, 09:23 am

another great tab
thanks keith!

guest
You may want to rate the tab now too:
select rating
Please do not post tabs as comments. Select "correction" instead!