Oops, an error
Loading. Please wait.

Dont Call Me Peanut Tab

version 3
version 3

Whole song

Interactive

4,777 views 1 this week
no commentswrite comment
1 2 3 4 5
accurate
x 3
add to favorites
launch autoscroll
font size
0
reset
how to read this tab
guitar tuner
Tab Pro tools
  • play this tab
  • loop segment
  • change instrument
  • show fretboard
  • metronome
×
Best way to learn
"Dont Call Me Peanut"
Autoscroll
slow
fast
+/-
esc
set tempo
stop
-------------------------------------------------------------------------------
                             Dont call me peanut - Bayside
-------------------------------------------------------------------------------
Tabbed by:Disco
Email:big_dave4321@hotmail.com

This is my first ever tab i have put up so let us know what ya think.
I know its no petrfect, i have not figured out all the embelishments
but i think its prity much acurate to say its 3 in the morning



Tuning:dafcgd

  Chords Used

    E7       Am        F        G        C       C7       Dm
e|---0--------0--------1--------3--------0--------0--------1-----------|
B|---3--------1--------1--------3--------1--------1--------3-----------|
G|---1--------2--------2--------0--------0--------3--------2-----------|
D|---0--------2--------3--------0--------2--------2--------0-----------|
A|---2--------0--------0--------2--------3--------3--------------------|
E|------------------------------3--------0--------0--------------------|

==============================================================================





Intro 

d|-----0--------0--------0--|
A|-----0--------1--------3--|
F|-----0------2--------4----|
C|---2------3--------5------|  2X
G|-3------------------------|
D|--------------------------|





=======================================
  Verse
(2X in) Drink up beautiful...
d|-----0--------0--------0--|
A|-----0--------1--------3--|
F|-----0------2--------4----|
C|---2------3--------5------|  
G|-3------------------------|
D|--------------------------|






=======================================
Fill Into Chorus
                               E7                   G
d|------0------0---------------0----------------------------3------------|
a|------0------1---------------3----------------------------3------------|
f|------0------2---------------1---------2---1---2-------0----0---0------|
c|----2------3-----------------0-------------------------0----0---0------|
g|--3--------------------------2-------0---0---0-------------------------|
d|--------------------------------------------------3--3----3----3-------|
                "So much Traped"                  Leave


       F                 G                               C         C7
d|-----0-----------------3-------------------------------0----------0--|
a|-----1-----------------3-------------------------------1----------1--|
f|----2-----------------0--------------------------------0---------(3)-|
c|---3---------------------------------------------------2----------2--|
g|-------------------------------------------------------3----------3--|
d|---------------------3---------------------------------0----------0--|
     So i            figured you might like some back;


========================================
  Chorus
     Am        E7         F           Em
d|---0-0-h3p0--0----------0-------------------|
a|---1---------3----------1------------0------|
f|---2---------2----------2------------0------|
c|---2---------0----------3------------2------|
g|-------------2-----------------------2------|
d|-------------------------------------0------|
And when I see her i'll tell......

d|---0-0-h3p0--0----------0------------3-----|
a|---1---------3----------1------------3-----|
f|---2---------2----------2------------4-----|
c|---2---------0----------3------------5-----|
g|-------------2-----------------------------|
d|-------------------------------------------|
she'll recite her excuses,Put my tail....

============
(verse)
============
  Solo 

   Am  Dm  G  C  G7

d|---------------------------------7-----8-7--8-7----------------------------|
a|--------------------------------8----8-------------------------------------|
f|---------------9-8-7-----------7---7---------------------------------------|
c|-/10-7--/10-7----------(2)/5-----------------------------------------------|
g|---------------------------------------------------------------------------|
d|---------------------------------------------------------------------------|

d|--------10-12-8------------------------------------------------------------
a|--10p-8--------10~------------------------------(6)/8----------------------|
f|------------------------7-8-9--9--9--9-8-7---------------------------------|
c|------------------------------7--7----------7-6-5--------------------------|
g|---------------------------------------------------------------------------|
d|---------------------------------------------------------------------------|

d|---------------------------------------------------------------------------|
a|---------------------------------------------------------------------------|
f|--5-4-2--------------------------------------------------------------------|
c|--------5-3-h5-3p-2--------------------------------------------------------|
g|--------------------5-3----------------------------------------------------|
d|---------------------------------------------------------------------------|
=======================================
Vocal part after solo
Am Dm G C G7
=======================================
Fill before last chorus

   Am       Dm
d|--0--------1---3---5--7--7-7-7-7-7-7-----7-8-------------------------------|
a|--1-------3-3-5-5-6--8---8-8-8-8-8-8---------------------------------------|
f|--2------2---4---5--7--------7-7-7-7---------------------------------------|
c|--2------0-----------------------0-0---------------------------------------|
g|---------------------------------------------------------------------------|
d|---------------------------------------------------------------------------|

  Chorus
     Am        E7         F           Em
d|---0-0-h3p0--0----------0-------------------|
a|---1---------3----------1------------0------|
f|---2---------2----------2------------0------|
c|---2---------0----------3------------2------|
g|-------------2-----------------------2------|
d|-------------------------------------0------|
And when I see her i'll tell......

d|---0-0-h3p0--0----------0------------3-----|
a|---1---------3----------1------------3-----|
f|---2---------2----------2------------4-----|
c|---2---------0----------3------------5-----|
g|-------------2-----------------------------|
d|-------------------------------------------|
she'll recite her excuses,Put my tail....
comments
We did not receive enough feedback on this tab! Please rate:
print report bad tab
1 2 3 4 5
I want to post or [tab]
guest
You may want to rate the tab now too:
select rating
Please do not post tabs as comments. Select "correction" instead!