Oops, an error
Loading. Please wait.

Dont Call Me Peanut Tab

version 4
version 4

Whole song

Interactive

32,182 views 12 this week
8 commentsread comments
1 2 3 4 5
x 12
add to favorites
launch autoscroll
font size
0
reset
how to read this tab
guitar tuner
Autoscroll
slow
fast
+/-
esc
set tempo
stop
Help us to improve Ultimate-Guitar.com Take our survey!
×
Author
----------------------------------------------------------------------------
	             Don't Call Me Peanut - Bayside
----------------------------------------------------------------------------
Tabbed by:  Keith Bowers
Email:      kbowz21@hotmail.com

Tuning:  1 step down

This is kind of a hybrid between the live and the studio version.  
The solo is from the live version because I like it better, but most
of the song is the same regardless.  It is also tabbed so that it 
can be played on one guitar.  If you really want the studio solo, 
PM me and I'll post it.


Intro
D|-----------------0----------0-----|
A|-----0-0---------1----------3-----|
F|-------0-------2---2------4---0---|   x4
C|---2---2-0--/3--------3/5---------|
G|/3-----3--------------------------|
D|----------------------------------|

|----------------------------------|
|-----0-0~--0----------------------|
|-------0~--0----2-2--5~-5---------|   x1
|---2---2~--2-0--3-3--6~-6---------|
|/3-----3~--3----3-3--6~-6---------|
|----------------1-1--4~-4---------|

Verse 1
|---------------------------------------------------------|
|---------------------------------------------------------|
|--2-----2---------0---0---0--------2------4/---9~--9--9--|   x1
|--2-----2---------2---2---2--------3------5/---10~-10-10-|
|0---0----------------------------3------5------10~-10-10-|
|------4----4-3~-3---3---3---3--1------3--------8~--7--7--|

Chorus
|----------------------------------------------------------|--------------|
|-----0h1-----0h1p0----------------------------------------|--------------|
|----------2--------2---------4---4------------------------|---------8--8-|
|---2------2----------------5-5---5------------------------|------9--9--9-|
|-0--------0--------------5-----5---5---/8--10--11--12~--12|----9-------9-|
|----------------------/3----------------------------------|-/7---------7-|

                      |---|
                      |---|
    The second time   |-8-|
    just strum        |-9-|
   at the end        |-9-|
                      |-7-|



	Repeat everything, then...


Solo
|------------------------------------|
|------------------------------------|
|------------------------------------|
|------------------------------------|
|-/14--13--11~--11----11h13p11--9-9~-|
|------------------12----------------|


|-----------------------------9-11-9-6h7---|
|-----------11-----11br-9----------------9-|
|--------11----11~---------10--------------|
|---9h11-----------------------------------|
|-9----------------------------------------|
|------------------------------------------|


|--------------------------------------------------------|
|---------------------------------------------------11---|
|----------------8h9p8----------------------------11--11-|
|-----------9h11-------11/13\11-9~------------9h11-------|
|----------------------------------7/11\10-9-------------|
|-/11-10-9~----------------------------------------------|


|-----------------------------------------------------------------|
|-----------------------------------------------------------------|
|---------------------------5~----------10-10~---------4-4~-4-----|
|---------------------------6~----------11-11~---------5-5~-5-----|
|-/14-13-11-9-7-7h9p7-6-4---6~----------11-11~---------5-5~-5-----|
|-------------------------4-4~-/11-10-9-9--9~---/5-4-3-3-3~-3-(0)-|


|-------------------------------|
|------0--------0---------------|
|------0--------0------9-----9--|
|----2-2-2----2-2-2----9-----9--|
|-/3---3--------3------7-----7--|
|-----------3---3---0-(0)-0-(0)-|

|------------------------------------|
|------------------------------------|
|----------10-10~---------4-4~-4-----|
|----------11-11~---------5-5~-5-----|
|----------11-11~---------5-5~-5-----|
|-/11-10-9-9--9~---/5-4-3-3-3~-3-(0)-|

|-------------------------------|
|------0--------0---------------|
|------0--------0------9-----9--|
|----2-2-2----2-2-2----9-----9--|
|-/3---3--------3------7-----7--|
|-----------3---3---0-(0)-0-(0)-|


|----------------------------------------------------------------|-------|
|----------------------------------------------------------------|-------|
|-------------10-------------11--------------13--13-13-13--13-13-|-15-16-|
|-------------11-------------12--------------14--14-14-14--14-14-|-15-16-|
|----------11----11-------12-----12-------14-14--14-14-14--14-14-|-13-14-|
|-/11-10-9-----------9/10-----------10/12----12--12-12-12--12-12-|-------|


                               |-------|
                               |-11-12-|
The second Guitar plays...     |-11-11-|
      at the end               |-11-11-|
                               |-9--9--|
                               |-------|	

	Play Chorus again,
	     End on...

|---|
|---|
|-8-|
|-9-|
|-9-|
|-7-|


| /  slide up
| \  slide down
| h  hammer-on
| p  pull-off
| ~  vibrato
| +  harmonic
| x  Mute note
============================================================================

Peace,
Keith
Suggest correction
comments
print report bad tab
8 comments total. Showing first comments.
+1 reply
aldenschulte 129 Nov 23, 2006 03:56 PM

wow, this is good. great job man.

+1 reply
shugo449 530 Dec 27, 2006 01:44 PM

nice 5*

0 reply
wind123 16 Mar 03, 2007 02:32 AM

very nice but i think he plays it slightly deeper

guest
You may want to rate the tab now too:
select rating
Wanna post a correction for this tab? Suggest correction