Oops, an error
Loading. Please wait.

Dont Call Me Peanut Acoustic tab

version 5
version 5

Interactive

by Bayside
86,078 views 72 this week
6 commentsread comments
1 2 3 4 5
x 31
add to favorites
×
Save as Personal and add changes to this tab that will be seen only by you. Learn more ›
×
You can save this tab as Personal to edit and correct it or add notes. All changes will be seen only by you. Learn more »
launch autoscroll
font size
0
reset
how to read this tab
guitar tuner
edit
Autoscroll
slow
fast
+/-
esc
set tempo
stop
Bayside - Don't Call Me Peanut
BAYSIDE
Tuning: Full Step Down (DGCFAD) or 1 1/2 Steps Down(live version)
Tabbed by Paolo Amador
The solo is based off of live version, everything else is based off the studio version.

1st guitar
D|-------0~-----------0---------0----------------|
A|-------0~-----------1---------3----------------|
F|-------0~---------2----2----4------------------|
C|----2--------0-/3--------/5--------------------|  x4
G|--/3-----------------------------0-------------|
D|-----------------------------------------------|

D|-------0~------1--4~----4----------------------|
A|-------0~------1--4~----4----------------------|
F|-------0~------2--5~----5----------------------|
C|----2--------3----4~----4----------------------|
G|--/3---------3----6~----6----------------------|
D|-------------1----4~----4----------------------|

D|-----------------------------------------------|
A|-----------------------------------------------|
F|---2------2--------0---0---0-------------------|
C|---2------2--------2---2---2-------------------|
G|-0---0-----------------------------------------|
D|--------4---4--3-3---3---3---3-----------------|

D|-----------------------------------------------|
A|-----------------------------------------------|
F|---2-----4--9--9-------------------------------|
C|---3-----5--10-8-------------------------------|
G|--3-----5---10-10------------------------------|
D|-1----/3----8--8-------------------------------|

D|--------------------------------------------------------|
A|-----0h1---0h1p0--------------------------------12-12---|
F|-----2-----2----2------4--4--------------------9---9----|
C|---2-----2-------0----2---2----7-9-10-10-----10----10---|
G|-0-------0-----------2-------/8-------8---/11------11---|
D|-------------------/4----4-4----------------------------|

D|--------------------------------------------------------------------|
A|-----0h1---0h1p0----------------------------------------------------|
F|-----2-----2----2------4--4-----------------------------------------|
C|---2-----2-------0----2---2---7-9-10-10---9/-12-12-12-12-12-12-12---|
G|-0-------0-----------2------/8-------8----7/-10-10-10-10-10-10-10---|
D|-------------------/4----4------------------------------------------|

D|-------0~-----------0---------0----------------|
A|-------0~-----------1---------3----------------|
F|-------0~---------2----2----4------------------|
C|----2--------0-/3--------/5--------------------|  x4
G|--/3-----------------------------0-------------|
D|-----------------------------------------------|

D|-------0~------1--4~----4----------------------|
A|-------0~------1--4~----4----------------------|
F|-------0~------2--5~----5----------------------|
C|----2--------3----4~----4----------------------|
G|--/3---------3----6~----6----------------------|
D|-------------1----4~----4----------------------|

D|-----------------------------------------------|
A|-----------------------------------------------|
F|---2------2--------0---0---0-------------------|
C|---2------2--------2---2---2-------------------|
G|-0---0-----------------------------------------|
D|--------4---4--3-3---3---3---3-----------------|

D|-----------------------------------------------|
A|-----------------------------------------------|
F|---2-----4--9----------------------------------|
C|---3-----5--10---------------------------------|
G|--3-----5---10---------------------------------|
D|-1----/3----8---\3 ----------------------------|

D|--------------------------------------------------------|
A|-----0h1---0h1p0--------------------------------12-12---|
F|-----2-----2----2------4--4--------------------9---9----|
C|---2-----2-------0----2---2----7-9-10-10-----10----10---|
G|-0-------0-----------2-------/8-------8---/11------11---|
D|-------------------/4----4-4----------------------------|

D|---------------------------------------------------------------------|
A|-----0h1---0h1p0-----------------------------------------------------|
F|-----2-----2----2------4--4------------------------------------------|
C|---2-----2-------0----2---2----7-9-10-10---9/-12-12-12-12-12-12-12---|
G|-0-------0-----------2-------/8-------8----7/-10-10-10-10-10-10-10---|
D|-------------------/4----4-4-----------------------------------------|

[Solo] 1st guitar
D|---------------------5*-5-----------3*-3---------------------|
A|---------------------6*-6-----------3*-3-----1-----1---------|
F|---9----9------------5*-5-----------0*-0-----0-----0---------|
C|---10---10-----------7*-7-----------0*-0----2--2--0--0-------|
G|-0----0----0--/7-6-5-5*-5-----------2*-2--/3-----2-----------|
D|---------------------------0-/5-4-3-3*-3---------------------| x 3

[Solo] 2nd guitar
D|-----------------------------------------------------|
A|-------------------------------------------12--------|
F|---------------------------------12------12--12------|
C|-/10-9-7~---7h9p7-----------10h12---10h12------------|
G|-------------------8/10-10---------------------------|
D|-----------------------------------------------------|

D|----------10-12-10--------------------------------------------|
A|-12b~-10----------12h13~--10----------------------------------|
F|--------12--------------------------9------9h10-----9---------|
C|------------------------------10h12---10h12-----12*---12p10---|
G|--------------------------------------------------------------|
D|--------------------------------------------------------------|

D|-------------------------------------------------------|
A|------------------12-----------------------------------|
F|----------------12--12~---/10-9-7----------------------|
C|-----------10h12-----------------10-8-8h10p8/7-5-3-----|
G|-/12p11-10---------------------------------------------|
D|-------------------------------------------------------|

Both 1st and 2nd guitar until end of song
D|----------------------------------------------|
A|---------------------6------8--------10-------|
F|---9----9------------7------9-------10--------|
C|---10---10----------7------9------10----------|
G|-0----0----0--/7-6-5--5-5/7--7-7/8-----8------|
D|----------------------------------------------|

D|-----------------------------------------------------------|
A|----------------------------12----12----12h13--------------|
F|----------------------------12----12----12-----------------|
C|-12-12-12-12-12-12-12-12-12-12-12-12-12-12-----------------|
G|-10-10-10-10-10-10-10-10-10-10-10-10-10-10-----------------|
D|-----------------------------------------------------------|

D|--------------------------------------------------------|
A|-----0h1---0h1p0--------------------------------12-12---|
F|-----2-----2----2------4--4--------------------9---9----|
C|---2-----2-------0----2---2----7-9-10-10-----10----10---|
G|-0-------0-----------2-------/8-------8---/11------11---|
D|-------------------/4----4-4----------------------------|

D|---------------------------------------------------------------------|
A|-----0h1---0h1p0-----------------------------------------------------|
F|-----2-----2----2------4--4------------------------------------------|
C|---2-----2-------0----2---2----7-9-10-10---9/-12-12-12-12-12-12-12~--|
G|-0-------0-----------2-------/8-------8----7/-10-10-10-10-10-10-10~--|
D|-------------------/4----4-4-----------------------------------------|


************************************

| ~  Vibrato
| /  Slide up
| h  Hammer-on
| p  Pull-off
| \  Slide down

************************************

            
            
Suggest correction
Creating personal tab
Creating personal tab
You can edit any tab online and save it as your Personal.

You can edit, replace or remove any tab part or add personal notes – all changes will be seen only by you.

Personal tabs can be accessed anytime from any device, even offline.
Learn more »
comments
print report bad tab
6 comments total. Showing first comments.
+2 reply
hockeypuckck 41 Feb 12, 2008 01:54 PM

finally, an accurate tab
thank you!

+1 reply
VALISICUS 10 Jun 24, 2008 12:52 PM

D|-----------------------------------------------|
A|-----------------------------------------------|
F|---2-----4--9--9-------------------------------|
C|---3-----5--10-8-------------------------------|
G|--3-----5---10-10------------------------------|
D|-1----/3----8--8-------------------------------|

Instead of going from D#Maj to FMaj to A#Major all the way in 8th position. Keep in in third position and play it like CMajor. It makes it much easier.

+1 reply
bebe17 10 Jan 16, 2009 06:52 PM

the only thing wrong is in the verse
when you play the Fmajor and then go to the G#major7
the G#major7 should actually be an Emajor7
like this:

D|-------0~------1--0~----0----------------------|
A|-------0~------1--3~----3----------------------|
F|-------0~------2--1~----1----------------------|
C|----2--------3----0~----0----------------------|
G|--/3---------3----2~----2----------------------|
D|-------------1----0~----0----------------------|
that sound right to me at least
or you can play it like this as well:
D|-------0~------1-------------------------------|
A|-------0~------1-------------------------------|
F|-------0~------2--4~----4----------------------|
C|----2--------3----2~----2----------------------|
G|--/3---------3----2~----2----------------------|
D|-------------1----4~----4----------------------|

nonetheless
great tab
5*

guest
You may want to rate the tab now too:
select rating
Wanna post a correction for this tab? Suggest correction