Oops, an error
Loading. Please wait.

Dont Call Me Peanut Tab

version 5
version 5

Intro

Solo

Whole song

Interactive

3,515 views 9 this week
1 commentread comment
1 2 3 4 5
please rate
add to favorites
launch autoscroll
font size
0
reset
how to read this tab
guitar tuner
Tab Pro tools
  • play this tab
  • loop segment
  • change instrument
  • show fretboard
  • metronome
Autoscroll
slow
fast
+/-
esc
set tempo
stop
Contributor
Here's my tab to Don't call me peanut. I think its pretty spot on. sorry the solo is all 
looking. but its correct how it looks. let me know what you all think of the tab. 
Heres a link of me playing this

http://www.youtube.com/watch?v=E-KEsT1a58o

Peace!!!

Tabbed by: Kyle Spradling
Tuning: whole step down

                                Don’t call me peanut
Intro/ verse
d|--------0----------0---------0---|
A|--------0----------1---------3---|
F|--------0--0-----2---2-----4-----| play 4x
C|------2------2/3-------3/5-----0-|
G|--1/3----------------------------|
D|---------------------------------|

d|--------0--0--0-----1---4-----4----------------------------------------------|
A|--------0--0--0-----1---4-----4----------------------------------------------|
F|--------0--0--0--2--2---5-----5------2-----2-------0---0---0--------2------4-|
C|------2----2--0--3--3---6-----6------2-----2-------2---2---2--------3------5-|
G|--1/3------------3--3---6-----6----0---0--------------------------3------5---|
D|-----------------1--1---4--4--4--0-------4---4\3-3---3---3---0--1------3-----|

d|-------------------|
A|--8---8-----8\-----|
F|--9---9-----9\-----|
C|--10--8-----8\-----|
G|--10--10----10\----|
D|--8---8--8—-8\-----|

Chorus
d|---------------------------------------------------------------------------|
A|------0h1---0h1p0------------------------------------------------12—-12\---|
F|------------------0-------4----4-------------------------------9-----9\----|
C|----2-----2-------------2------2-------7-9-10----10---------10-------10\---|
G|--0-------0-----------2------------4/8-----8--8--8--0—-8/11----------11\---|
D|--------------------4--------4---4-----------------------------------------|

d|-------------------------------------------------------------------------------|
A|------0h1---0h1p0--------------------------------------------------------------|
F|------------------0-------4----4-----------------------------------------------|
C|----2-----2-------------2------2-------7-9-10---10-10/12-12-12-12-12-12-12\----|
G|--0-------0-----------2------------4\8------8-8-8--8--10-10-10-10-10-10-10\--0-|
D|--------------------4--------4---4---------------------------------------------|

Interlude 1:08-1:21
d|--------0-0-------------0---------0---------0-0-0-3---------0---------0------|
A|--------0---3-1---------1---------3---------0-------1-------1---------3------|
F|--------0-------0-----2---2-----4-----------0-------------2---2-----4--------|
C|------2-----------2/3-------3/5-----------2-----------2/3-------3/5------0---|
G|--1/3-------------------------------0—1/3------------------------------------|
D|-----------------------------------------------------------------------------|

d|--------0-0----------0---------0----------0----------0---------0-----------|
A|--------0-0----------1---------3----------0----------1---------3-----------|
F|--------0-0--------2---2-----4------------0--0-----2---2-----4-------------|
C|------2---2--0—2/3-------3/5-----0------2------2/3-------3/5-----0---------|
G|--1/3-------------------------------1/3------------------------------------|
D|---------------------------------------------------------------------------|

d|--------0--0--0-----1---4-----4------------------------------------------------|
A|--------0--0--0-----1---4-----4------------------------------------------------|
F|--------0--0--0--2--2---5-----5------2-----2-------0---0---0--------2------4---|
C|------2----2--0--3--3---6-----6------2-----2-------2---2---2--------3------5---|
G|--1/3------------3--3---6-----6----0---0--------------------------3------5-----|
D|-----------------1--1---4--4--4--0-------4---4\3-3---3---3---0--1------3-------|

d|-----------|
A|--8--------|
F|--9--------|
C|--10----2--|
G|--10----2--|
D|--8---3----|
Chorus

d|---------------------------------------------------------------------------|
A|------0h1---0h1p0------------------------------------------------12—-12\---|
F|------------------0-------4----4-------------------------------9-----9\----|
C|----2-----2-------------2------2-------7-9-10----10---------10-------10\---|
G|--0-------0-----------2------------4/8-----8--8--8--0—-8/11----------11\---|
D|--------------------4--------4---4-----------------------------------------|

d|-------------------------------------------------------------------------------|
A|------0h1---0h1p0--------------------------------------------------------------|
F|------------------0-------4----4-----------------------------------------------|
C|----2-----2-------------2------2-------7-9-10---10-10/12-12-12-12-12-12-12\----|
G|--0-------0-----------2------------4\8------8-8-8--8--10-10-10-10-10-10-10\--0-|
D|--------------------4--------4---4---------------------------------------------|

Solo

e|---------------------------------------------------------------------------------------------|
B|-----------------------------------------------------------------------------12--13\12-10\8--|
G|-----9----9--------------------------------------------------12------------------------------|
D|--7----7----7--------------------------------------10h12-----10h12---------------------------|
A|--------------------------------12-9h10-10-10------------------------------------------------|
E|----------------9/12-11-10-------------------------------------------------------------------|

e|---10/12-10\8----------------------------------------------------------------------------|
B|------------------10---------------------------------------------------------------------|
G|----------------------9----9----------9-10-9-10-9------------------------------12-12-12--|
D|------------------------10---10/12-----------------12-10-10------------------------------|
A|---------------------------------------------------------------------9h12-10-10----------|
E|-----------------------------------------------------------------------------------------|

e|----------------------------------------------------------------------|
B|----------------------------------------------------------------------|
G|----------------------------------------------------------------------|
D|----------------------------------------------------------------------|
A|-12/15-14-12-10-7h8-6h7-5h6-3h5-0-------------------------------------|
E|----------------------------------------------------------------------|



Chorus
d|---------------------------------------------------------------------------|
A|------0h1---0h1p0------------------------------------------------12—-12\---|
F|------------------0-------4----4-------------------------------9-----9\----|
C|----2-----2-------------2------2-------7-9-10----10---------10-------10\---|
G|--0-------0-----------2------------4/8-----8--8--8--0—-8/11----------11\---|
D|--------------------4--------4---4-----------------------------------------|

d|-------------------------------------------------------------------------------|
A|------0h1---0h1p0--------------------------------------------------------------|
F|------------------0-------4----4-----------------------------------------------|
C|----2-----2-------------2------2-------7-9-10---10-10/12-12-12-12-12-12-12\----|
G|--0-------0-----------2------------4\8------8-8-8--8--10-10-10-10-10-10-10\--0-|
D|--------------------4--------4---4---------------------------------------------|
comments
We did not receive enough feedback on this tab! Please rate:
print report bad tab
1 2 3 4 5
1 comment total.
0 reply
LuDo3234 wrote on September 2 2011, 04:36 pm

You didn't put the bridge on here man...

I want to post or [tab]
guest
You may want to rate the tab now too:
select rating
Please do not post tabs as comments. Select "correction" instead!