Oops, an error
Loading. Please wait.

Duality Bass Tab

version 1
version 1

Whole song

Interactive

4,866 views 3 this week
1 commentread comment
1 2 3 4 5
accurate
x 5
add to favorites
launch autoscroll
font size
0
reset
guitar tuner
Autoscroll
slow
fast
+/-
esc
set tempo
stop
Help us to improve Ultimate-Guitar.com Take our survey!
×
Difficulty
Tuning
intermediate
D A D G B E
Duality (Bass tab)

Band:Bayside
Bassist:Nick Ghanbarian

Bass comes in at 0:11

Intro/Verse

G------------------------------------------------------------------------|
D-7777777777777777-33333333-----5555-333333333333------------------------|
A---------------------------3333------------------5555-7777777777777777--|
D------------------------------------------------------------------------|x1

Build up

G------------------------s------|
D------------------------t------|
A------------------------o------|
D-777-555-333-222-000000-p------|x1

Chorus

G-------------------------------------|
D-------------------------------------|
A-33333333-77777777-------------------|
D-------------------77777777-55555555-|x1

G---------------------------------------------------------|
D---------------------------------------------------------|
A-33333333-77777777---------------------------33333333----|
D-------------------77777777-55555555-33333333------------|x1

After Chorus

G-----------------------s--------|
D-7-7-7-77-7-7-7-7------t--------|
A---------------------3-o--------|
D------------------3~---p-/7-----|x1

Verse 2

G------------------------------------------------------------------------|
D-7777777777777575-33333333-----5555-333333333333------------------------|
A---------------------------3333------------------5555-7777777777777777--|
D------------------------------------------------------------------------|x2

Build up

G------------------------------|
D------------------------------|
A------------------------------|
D-777-555-333-222-000000-------|x2

Chorus

G-------------------------------------|
D-------------------------------------|
A-33333333-77777777-------------------|
D-------------------77777777-55555555-|x1

G---------------------------------------------------------|
D---------------------------------------------------------|
A-33333333-77777777---------------------------33333333----|
D-------------------77777777-55555555-33333333------------|x1

After Chorus

G---------------------------s--|
D-7-7-7-77-7-7-7-7-------77-t--|
A---------------------3~----o--|
D------------------3~-------p--|x1

Bridge

G-------------------------------|
D-------------------------------|
A-------------------------------|
D-777-333-10101010101010101010--|x2
(Those are 10's)

G-----------------------------------|
D-----------------------------------|
A-----------------------------------|
D-7-7-7-7-7-7-7-7-3-3-3-3-5-5-5-5---|x1

G-------------------------------|
D-------------------------------|
A-------------------------------|
D-777-333-10101010101010101010--|x2
(Those are 10's)

Build up

G-----------------------------------|
D-----------------------------------|
A-----------------------------------|
D-77777777-88888888-10101010101010--|x2
(Those are 10's)

Chorus

G-------------------------------------|
D-------------------------------------|
A-33333333-77777777-------------------|
D-------------------77777777-55555555-|x1

G---------------------------------------------------------|
D---------------------------------------------------------|
A-33333333-77777777---------------------------33333333----|
D-------------------77777777-55555555-33333333------------|x1

Outro

G------------------------------------|
D-7-7-7-77-7-7-7-7-------------------|
A---------------------3~-0~-2~-3~~---|
D------------------3~----------------|x1
Suggest correction new What's this?
You can suggest a correction to this tab. Community and Mods will review your correction and vote to approve or reject it.
comments
print report bad tab
1 comment total.
0 reply
boredchika 193 wrote on March 17 2010, 05:02 pm

There are 2 things that I think aren't right. The first is on the Intro/Verse there should be 8 5's on the D string and then 8 7's, not 4 and 16. The second is where you have the last Build Up. You have 7's, 8's and 10's but I believe they are 7's, 14's and 15's all on the Drop D string.

guest
You may want to rate the tab now too:
select rating
Please do not post tabs as comments. Select "correction" instead!