Oops, an error
Loading. Please wait.

Duality Tab

version 1
version 1

Whole song

Interactive

23,143 views 9 this week
8 commentsread comments
1 2 3 4 5
accurate
x 12
add to favorites
launch autoscroll
font size
0
reset
how to read this tab
guitar tuner
Autoscroll
slow
fast
+/-
esc
set tempo
stop
Help us to improve Ultimate-Guitar.com Take our survey!
×
Contributor
Difficulty
Tuning
intermediate
D A D G B E
----------------------------------------------------------------------------
                             BAYSIDE - Duality
----------------------------------------------------------------------------
Badass song. That is all.

Tuning: Drop D

Verse (Guitar 1)                                                      x2
e|---------------------------------------------------------------------|
B|---------------------------------------------------------------------|
G|---------------------------------------------------------------------|
D|-75757575--35353535---5-5--5-5-----33333333----22222222--------------|
A|---------------------3-3--7-7---------------55-----------------------|
E|---------------------------------------------------------------------|

Verse (Guitar 2)                                                     x2
e|---------------------------------------------------------------------|
B|---------------------------------------------------------------------|
G|---------------------------------------------------------------------|
D|---------------------------------------------------------------------|
A|---------------------33333333----------------------------------------|
E|-75757575--33333333------------22--33333333-00-22222222--------------|

(:24)                      (:24)
e|--------------------|--|-----------------------------------|
B|--------------------|--|------3-------3------3------3------|
G|--------------------|--|--2-5----2-5----2-5----2-5---------|
D|-77-55-33-22-0000---|--|-----------------------------------|
A|-77-55-33-22-0000---|--|-----------------------------------|
E|-77-55-33-22-0000---|--|-----------------------------------|

(:31)                x2                               
e|---------------------|-----------------------------|--------------------|
B|---------------------|-----------------------------|--------------------|
G|-5555-9999-----------|------5555-9-9-9-9-----------|--------------------|
D|-5555-9999-7777-5555-|-3333-5555-9-9-9-9--3333--5--|-77-777-777-777-----|
A|-3333-7777-7777-5555-|-3333-3333-7-7-7-7--3333--5--|-77-777-777-777-----|
E|-----------7777-5555-|-3333---------------3333--5--|-77-777-777-777-----

(VERSE)

(1:08)                                                 (cuts to symphony)
e|-5------5h8-5-5-----5h8-12-17h19h20-19p16---------------------------------
B|--8-5-8---------8-5-8---------------------17-15---------------------------
G|-----------------------------------------------16-13--17-16-13------------
D|----------------------------------------------------14--------14-12-------
A|-------------------------------------------------------------------14-11-7
E|--------------------------------------------------------------------------


(1:20)              x2     (1:20)                    x2                
e|--------------------|--|-----------------------------|
B|--------------------|--|------3-----3-----3-----3----|
G|--------------------|--|--2-5---2-5---2-5---2-5------|
D|-77-55-33-22-0000---|--|-----------------------------|
A|-77-55-33-22-0000---|--|-----------------------------|
E|-77-55-33-22-0000---|--|-----------------------------|

(1:32)               x2                               
e|---------------------|-----------------------------|
B|---------------------|-----------------------------|
G|-5555-9999-----------|------5555-9-9-9-9-----------|
D|-5555-9999-7777-5555-|-3333-5555-9-9-9-9--3333--5--|
A|-3333-7777-7777-5555-|-3333-3333-7-7-7-7--3333--5--|
E|-----------7777-5555-|-3333---------------3333--5--|

(1:54)                                   x2  (2:18)
e|-----------------------------------------|-------------------|
B|-----------------------------------------|-------------------|
G|-----------------------------------------|-7777-9999-1010----|
D|-77-------------------------7-3-10-7-3-10|-7777-9999-1010----|
A|-77-77777777-77777777-7777--7-3-10-7-3-10|-5555-7777-8-8-----|
E|-77-77777777-55555555-6666--7-3-10-7-3-10|-------------------|

(2:24)               x2                                      (let ring)
e|---------------------|-----------------------------|----------------|
B|---------------------|-----------------------------|----------------|
G|-5555-9999-----------|------5555-9-9-9-9-----------|----------------|
D|-5555-9999-7777-5555-|-3333-5555-9-9-9-9--3333--5--|-333333-10------|
A|-3333-7777-7777-5555-|-3333-3333-7-7-7-7--3333--5--|-333333-10------|
E|-----------7777-5555-|-3333---------------3333--5--|-333333-10------|

| /  slide up
| \  slide down
| h  hammer-on
| p  pull-off
| ~  vibrato
| +  harmonic
| x  Mute note
============================================================================
comments
print report bad tab
8 comments total. Showing first comments.
0 reply
shugo449 874 wrote on February 24 2007, 02:09 pm

your tabs are great 5* please tab out walking wounded with the solo

0 reply
wind123 41 wrote on July 18 2007, 08:28 pm

great but i think around 1:08 the first part goes like this

e|-5-5--7-8-5---5-5--7-8--12----------|
B|------------------------------------|
G|------------------------------------|
D|------------------------------------|
A|------------------------------------|
E|------------------------------------|


0 reply
Rampy 314 wrote on August 7 2007, 10:20 am

I'm pretty sure that each chord is played 8 times in the chorus..

I want to post or [tab]
guest
You may want to rate the tab now too:
select rating
Please do not post tabs as comments. Select "correction" instead!