Oops, an error
Loading. Please wait.

Duality Tab

version 2
version 2

Whole song

Interactive

4,345 views 1 this week
no commentswrite comment
1 2 3 4 5
1 last vote to show rating
add to favorites
launch autoscroll
font size
0
reset
how to read this tab
guitar tuner
Autoscroll
slow
fast
+/-
esc
set tempo
stop
Help us to improve Ultimate-Guitar.com Take our survey!
×
Author
Difficulty
Tuning
intermediate
D A D G B E
-------------------------------------------------------------------------------
                             Duality - Bayside
-------------------------------------------------------------------------------
Tabbed by: Travis
Email: travis@sxebrandnewmusic.com

Tuning: Drop D

This tab is kinda a mix between guitar 1 & 2. It's also a mix between the way its played 
the album & the way its played live. This is my first tab.

| /  slide up
| \  slide down
| h  hammer-on
| p  pull-off
| ~  let ring
| +  harmonic
| x  Mute note


Intro/Verse
e|---------------------------------------------------------------------------|
B|---------------------------------------------------------------------------|
G|---------------------------------------------------------------------------|x2
D|--7575757575757575--35353535---5-5---5-5--333333333333----2222222222222222-|
A|------------------------------3-3---7-7----------------55------------------|
D|---------------------------------------------------------------------------|
    ****************  ********  ****  ****  ************ ** ****************

Pre-Chorus
e|---------------------------|
B|---------------------------|
G|---------------------------|
D|--77-55-33-22-000000000000x|
A|--77-55-33-22-000000000000x|
D|--77-55-33-22-000000000000x|

Chorus
e|-------------------------------------|
B|-------------------------------------|
G|--55555555-99999999-77777777-55555555|x2
D|--55555555-99999999-77777777-55555555|
A|--33333333-77777777-77777777-55555555|
D|-------------------------------------|

e|------------------------------------------------|
B|------------------------------------------------|
G|--33333333-55555555-9x-9x-9x-99x-9x-9x-99x-3~-5x|
D|--33333333-55555555-9x-9x-9x-99x-9x-9x-99x-3~-5x|
A|--33333333-33333333-7x-7x-7x-77x-7x-7x-77x-3~-5x|
D|------------------------------------------------|

Post-Chorus
e|------------------------|
B|------------------------|
G|------------------------|
D|--77x-777x-777x-777x-14/|
A|--77x-777x-777x-777x-14/|
D|--77x-777x-777x-777x-14/|

Intro/Verse
e|---------------------------------------------------------------------------|
B|---------------------------------------------------------------------------|
G|---------------------------------------------------------------------------|x2
D|--7575757575757575--35353535---5-5---5-5--333333333333----2222222222222222-|
A|------------------------------3-3---7-7----------------55------------------|
D|---------------------------------------------------------------------------|
    ****************  ********  ****  ****  ************ ** ****************


Pre-Chorus
e|---------------------------|
B|---------------------------|
G|---------------------------|x2
D|--77-55-33-22-000000000000x|   x only after 2nd time
A|--77-55-33-22-000000000000x|   x
D|--77-55-33-22-000000000000x|   x

Chorus
e|-------------------------------------|
B|-------------------------------------|
G|--55555555-99999999-77777777-55555555|x2
D|--55555555-99999999-77777777-55555555|
A|--33333333-77777777-77777777-55555555|
D|-------------------------------------|

e|------------------------------------------------|
B|------------------------------------------------|
G|--33333333-55555555-9x-9x-9x-99x-9x-9x-99x-3~-5~|
D|--33333333-55555555-9x-9x-9x-99x-9x-9x-99x-3~-5~|
A|--33333333-33333333-7x-7x-7x-77x-7x-7x-77x-3~-5~|
D|------------------------------------------------|

Bridge
e|---------------------------------------------------------|
B|---------------------------------------------------------|
G|------------------------------------------------4--77----|
D|--12--------9-9-9-9-9-9-9-9---9-9-9-9-9-9-9-9---4--77--77|
A|--12-(x16)--1010101010101010--1010101010101010--2--55--77|
D|--10--------7-7-7-7-7-7-7-7---8-8-8-8-8-8-8-8---2--55--55|
    *         * * * * * * * *   * * * *
e|-------------------------------------|
B|-------------------------------------|
G|--77777777-99999999-1010101010101010x|
D|--77777777-99999999-1010101010101010x|
A|--55555555-77777777-8-8-8-8-8-8-8-8-x|
D|-------------------------------------|

Chorus
e|-------------------------------------|
B|-------------------------------------|
G|--55555555-99999999-77777777-55555555|x2
D|--55555555-99999999-77777777-55555555|
A|--33333333-77777777-77777777-55555555|
D|-------------------------------------|

e|-------------------------------------------------------|
B|-------------------------------------------------------|
G|--33333333-55555555-9x-9x-9x-99x-9x-9x-99x-3~-5~-3~-10~|
D|--33333333-55555555-9x-9x-9x-99x-9x-9x-99x-3~-5~-3~-10~|
A|--33333333-33333333-7x-7x-7x-77x-7x-7x-77x-3~-5~-3~-10~|
D|-------------------------------------------------------|

===============================================================================
Suggest correction
Give kudos to tab author, rate the tab!
1 2 3 4 5
comments
print report bad tab
guest
You may want to rate the tab now too:
select rating
Wanna post a correction for this tab? Suggest correction