Oops, an error
Loading. Please wait.

Duality Tab

version 4
version 4

Whole song

Interactive

322 views 1 this week
no commentswrite comment
1 2 3 4 5
3 more votes to show rating
add to favorites
launch autoscroll
font size
0
reset
how to read this tab
guitar tuner
Autoscroll
slow
fast
+/-
esc
set tempo
stop
Help us to improve Ultimate-Guitar.com Take our survey!
×
Author
Difficulty
This is Gibbs. I'm new at tabbing but this tab sounds dead on when i play it. Hope you enjoy.

*=palm mute
x=cover string with hand and strum (like palm muting almost except a more heavy mute)
/=slide up
\=slide down

verse1 (play twice)
e-----------------------------------------------------------------|
B-----------------------------------------------------------------|
G-----------------------------------------------------------------|
D-----------------------------------5---5---5---5---7---7---7---7-|
A---9---9---9---9---9---9---9---9-----------------5---5-----------|
E-7---7---7---7---7---7---7---7---3---3---3---3-----------5---5---|
  * * * * * * * * * * * * * * * * * * * * * * * * * * * * * * * *

e-----------------------------------------------------------------|
B-----------------------------------------------------------------|
G-----------------------------------------------------------------|
D---5---5---5---5---5---5---5---5---------------------------------|
A-----------------------------------9---9---9---9---9---9---9---9-|
E-3---3---3---3---3---3---3---3---6---6---6---6---6---6---6---6---|
  * * * * * * * * * * * * * * * * * * * * * * * * * * * * * * * *

chorus (play once)
e----------------------------------------|
B----------------------------------------|
G----------------------------------------|
D-9---7---5---4---2---22---222--2xx--xxx-|
A-9---7---5---4---2---22---222--2xx--xxx-|
E-7---5---3---2---0---00---000--0xx--xxx-|

e----------------------------------------|
B----------------------------------------|
G-7-7-777-7/11-11-111111-----------------|
D-7-7-777-7/11-11-111111-9-9-999-7-7-777-|
A-5-5-555-5/9 -9 -9 9 9 -9-9-999-7-7-777-|
E------------------------7-7-777-5-5-555-|

e---------------------------------------|
B---------------------------------------|
G---------------------------------------|
D-5-5-555-5/7-7-777---------------------|
A-5-5-555-5/7-7-777-99999999------------|
E-3-3-333-3/5-5-555-66666666------------|

verse2 (play twice)
e-----------------------------------------------------------------|
B-----------------------------------------------------------------|
G-----------------------------------------------------------------|
D-----------------------------------5---5---5---5---7---7---7---7-|
A---9---9---9---9---9---9---9---9-----------------5---5-----------|
E-7---7---7---7---7---7---7---7---3---3---3---3-----------5---5---|

e-----------------------------------------------------------------|
B-----------------------------------------------------------------|
G-----------------------------------------------------------------|
D---5---5---5---5---5---5---5---5---------------------------------|
A-----------------------------------9---9---9---9---9---9---9---9-|
E-3---3---3---3---3---3---3---3---6---6---6---6---6---6---6---6---|

chorus (play once)
e----------------------------------------|
B----------------------------------------|
G----------------------------------------|
D-9---7---5---4---2---22---222--2xx--xxx-|
A-9---7---5---4---2---22---222--2xx--xxx-|
E-7---5---3---2---0---00---000--0xx--xxx-|

e----------------------------------------|
B----------------------------------------|
G-7-7-777-7/11-11-111111-----------------|
D-7-7-777-7/11-11-111111-9-9-999-7-7-777-|
A-5-5-555-5/9 -9 -9 9 9 -9-9-999-7-7-777-|
E------------------------7-7-777-5-5-555-|

e---------------------------------------|
B---------------------------------------|
G---------------------------------------|
D-5-5-555-5/7-7-777---------------------|
A-5-5-555-5/7-7-777-99999999------------|
E-3-3-333-3/5-5-555-66666666------------|

verse3 (play twice)
e-----------------------------------------------------------------------|
B-----------------------------------------------------------------------|
G-----------------------------------------------------------------------|
D------------------55555555-7777-7777-5555555555555555------------------|
A-9999999999999999-xxxxxxxx-5555-xxxx-xxxxxxxxxxxxxxxx-9999999999999999-|
E-7777777777777777-33333333------5555-3333333333333333-6666666666666666-|

chorus (play once)
e----------------------------------------|
B----------------------------------------|
G----------------------------------------|
D-9---7---5---4---2---22---222--2xx--xxx-|
A-9---7---5---4---2---22---222--2xx--xxx-|
E-7---5---3---2---0---00---000--0xx--xxx-|

e----------------------------------------|
B----------------------------------------|
G-7-7-777-7/11-11-111111-----------------|
D-7-7-777-7/11-11-111111-9-9-999-7-7-777-|
A-5-5-555-5/9 -9 -9 9 9 -9-9-999-7-7-777-|
E------------------------7-7-777-5-5-555-|

e---------------------------------------|
B---------------------------------------|
G---------------------------------------|
D-5-5-555-5/7-7-777---------------------|
A-5-5-555-5/7-7-777-99999999------------|
E-3-3-333-3/5-5-555-66666666------------|

~~~for the remainder of the song alternate verse3 and the chorus~~~
Suggest correction
Give kudos to tab author, rate the tab!
1 2 3 4 5
comments
print report bad tab
guest
You may want to rate the tab now too:
select rating
Wanna post a correction for this tab? Suggest correction