Oops, an error
Loading. Please wait.

Head On A Plate Tab

3,608 views 1 this week
1 commentread comment
1 2 3 4 5
accurate
x 3
add to favorites
launch autoscroll
font size
0
reset
how to read this tab
guitar tuner
Autoscroll
slow
fast
+/-
esc
set tempo
stop
Help us to improve Ultimate-Guitar.com Take our survey!
×
Author
Difficulty
Tuning
intermediate
D A D G B E
----------------------------------------------------------------------------
                             HEAD ON A PLATE - Bayside
----------------------------------------------------------------------------

Tuning: Drop D

(:00)
e|-------------------------------------------------|
B|-------------------------------------------------|
G|--------------------(77777777)-------------------|
D|-55555555-0-22222222-77777777-10-10-10-10--------|
A|-55555555-0-22222222-55555555-10-10-10-10--------|
E|-55555555-0-22222222-00000000-10-10-10-10--------|

(:11) (:15)
e|-3-|-3--------3--------5---2h32-2h32-0----3---------------|
B|-3-|-3----3------3-----7---3--3-3--3-3----3---------------|
G|-5-|-0--0--0-0--0--0---7---2--2-2--2-2----5---55555555----|
D|---|------------------------------------------55555555----|
A|---|------------------------------------------33333333----|
E|---|------------------------------------------------------|

(:31)                             (x2)
e|-----------------------------------|
B|-----------------------------------|
G|------------------55-555-555-555-5-|
D|-22-222-222-222-2-55-555-555-555-5-|
A|-22-222-222-222-2-33-333-333-333-3-|
E|-22-222-222-222-2------------------|

(:31)                           
e|----------------------------------------------------------------------|
B|-----b------b-------b--------b---------b------b-------b---------------|
G|-542-2--542-2---542-2------2-2-----542-2--542-2-----2-2---------------|
D|------2------2-------2--025----5-2------2------2-025---5-2-0----b-----|
A|------------------------------------------------------------3-5-5-3---|
E|-------------------------------------------------------------------4--|

(:46)               (x2)
e|---------------------|--------------3--|
B|---------------------|--------------4--|
G|----44-99-77-55----77|-----9-7-55-5-5--|
D|-55-44-99-77-55-77-77|-5-9-9-7-55-5-5--|
A|-55-22-77-55-33-77-55|-5-9-7-5-33-3-3--|
E|-55-------------77---|-5-9-------------|

(1:17)                                            (x2)
e|-3--------3--------5---2h32-2h32-0----3------------|
B|-3----3------3-----7---3--3-3--3-3----3------------|
G|-0--0--0-0--0--0---7---2--2-2--2-2----5---55555555-|
D|------------------------------------------55555555-|
A|------------------------------------------33333333-|
E|---|-----------------------------------------------|

(1:47)
e|-----------------------------------|
B|-----------------------------------|
G|------------------55-555-555-555-5-|
D|-22-222-222-222-2-55-555-555-555-5-|
A|-22-222-222-222-2-33-333-333-333-3-|
E|-22-222-222-222-2------------------|

(1:47)                           
e|----------------------------------------------------------------------|
B|-----b------b-------b--------b---------b------b-------b---------------|
G|-542-2--542-2---542-2------2-2-----542-2--542-2-----2-2---------------|
D|------2------2-------2--025----5-2------2------2-025---5-2-0----b-----|
A|------------------------------------------------------------3-5-5-3---|
E|-------------------------------------------------------------------4--|

(2:03)              (x2)
e|---------------------|--------------3-----|
B|---------------------|--------------4-----|
G|----44-99-77-55----77|-----9-7-55-5-5-5-7-|
D|-55-44-99-77-55-77-77|-5-9-9-7-55-5-5-5-7-|
A|-55-22-77-55-33-77-55|-5-9-7-5-33-3-3-3-5-|
E|-55-------------77---|-5-9----------------|

(2:33)                  (x4)
e|-------------------------|
B|-------------------------|
G|-99----99-------77----77-|
D|-99-99-99-99-55-77-55-77-|
A|-77-99-77-99-55-55-55-55-|
E|----99----99-55----55----|

(2:33)                               (x2)
e|---2-3-2-----2-3-2-3---10-7-10-7-10-7-|
B|--3-----3---3-------3-----------------|
G|-4-------4-4---------4----------------|
D|--------------------------------------|
A|--------------------------------------|
E|--------------------------------------|

(3:04)
e|-----------------------------------|
B|-----------------------------------|
G|------------------55-555-555-555-5-|
D|-22-222-222-222-2-55-555-555-555-5-|
A|-22-222-222-222-2-33-333-333-333-3-|
E|-22-222-222-222-2------------------|

(3:04)
e|----------------------------------------------------------3-----|
B|-----b------b-------b--------b---------b------b-------b---3-----|
G|-542-2--542-2---542-2------2-2-----542-2--542-2-----2-2---5-----|
D|------2------2-------2--025----5-2------2------2-025---50-5-----|
A|----------------------------------------------------------3-----|
E|----------------------------------------------------------------|

(3:21)              (x2)
e|---------------------|--------------3--7------|
B|---------------------|--------------4--8------|
G|----44-99-77-55----77|-----9-7-55-5-5--7------|
D|-55-44-99-77-55-77-77|-5-9-9-7-55-5-5--0------|
A|-55-22-77-55-33-77-55|-5-9-7-5-33-3-3---------|
E|-55-------------77---|-5-9--------------------|


| /  slide up
| \  slide down
| h  hammer-on
| p  pull-off
| ~  vibrato
| +  harmonic
| x  Mute note
| b  Bend note
============================================================================
Suggest correction
Give kudos to tab author, rate the tab!
1 2 3 4 5
comments
print report bad tab
1 comment total.
-1 reply
shugo449 530 wrote on March 3 2007, 09:25 am

great

guest
You may want to rate the tab now too:
select rating
Wanna post a correction for this tab? Suggest correction