Oops, an error
Loading. Please wait.

Just Enough To Love You bass

version 1
version 1

Whole song

by Bayside
1,584 views 3 this week
2 commentsread comments
1 2 3 4 5
1 last vote to show rating
add to favorites
×
Save as Personal and add changes to this tab that will be seen only by you. Learn more ›
×
You can save this tab as Personal to edit and correct it or add notes. All changes will be seen only by you. Learn more »
launch autoscroll
font size
0
reset
guitar tuner
edit
Autoscroll
slow
fast
+/-
esc
set tempo
stop
Difficulty
-------------------------------------------------------------------------------
			     Just Enough To Love You - Bayside (Split-EP)
-------------------------------------------------------------------------------

Tabbed By : Chris Ariosa
e-mail: chrisariosa@comcast.net

Tuning: Standard

First tab guys, please comment!

G|------------------------------------------------------------------------------|
D|------------------------------------------------------------------------------|
A|------------------------------------------------------------------------------| x8
E|5555555588883333111111118888359----------------------------------- -----------|

G|-----------------------------------------------------------------------------|
D|-----------------------------------------------------------------------------|
A|-----------------------------------------------------------------------------|
E|0~---1~---8~---3~---0~---1~---8~---3-3-3-3-3-3-3-3---------------------------|

G|-----------------------------------------------------------------------------|
D|-----------------------------------------------------------------------------|
A|-----------------------------------------------------------------------------|
E|55-88-3-3-00--11-11--3-3---33-55-88-3-3-00-11-11-3~-3------------------------|

G|-----------------------------------------------------------------------------|
D|-----------------------------------------------------------------------------|
A|-----------------------------------------------------------------------------|
E|5-5-5-5-5-5-5-531-1-1-1-1-1-1-3-5-5-5-5-5-5-5-531-1-1-1-1-1-1-1-1------------|

G|-----------------------------------------------------------------------------|
D|-----------------------------------------------------------------------------|
A|-----------------------------------------------------------------------------|
E|3-3-3-3-3-3-3-3-1-1-1-1-1-1-1-1-3-3-3-3-3-3-3-3-1-1-1-1-1-1-1-1--------------|

G|------------------------------------------------------------------------------|
D|------------------------------------------------------------------------------| x4
A|------------------------------------------------------------------------------|
E|55~-5-77-788-5-11~-1---3-3-333-3----------------------------------------------|

G|------------------------------------------------------------------------------|
D|------------------------------------------------------------------------------| x2
A|------------------------------------------------------------------------------|
E|555555558888333311111111188883333555555558888333311111118888------------------|

G|-----------------------------------------------------------------------------|
D|-----------------------------------------------------------------------------|
A|-----------------------------------------------------------------------------|
E|5~-------5~------1~-------1~----------5~-------5~/14~-----14~----------------|

G|-----------------------------------------------------------------------------|
D|-----------------------------------------------------------------------------|
A|-----------------------------------------------------------------------------|
E|55-555-11-111-33-333-11-33-55-555-11-111-33-333-11-33------------------------|

G|-----------------------------------------------------------------------------|
D|-----------------------------------------------------------------------------|
A|-----------------------------------------------------------------------------|
E|5-5-5-5-1-1-1-1-5-5-5-5-1-1-1-1-5-5-5-5-1-1-1-1-5-5-5-5-1-1-1-1--------------|

G|---------------------------------------------------------------------------|
D|---------------------------------------------------------------------------|
A|--------------8~-----------------------------------------------------------|
E|55-55555555----------------------------------------------------------------|


| /  slide up
| \  slide down
| h  hammer-on
| p  pull-off
| ~  vibrato
| +  harmonic
| x  Mute note

            
            
Suggest correction
Creating personal tab
Creating personal tab
You can edit any tab online and save it as your Personal.

You can edit, replace or remove any tab part or add personal notes – all changes will be seen only by you.

Personal tabs can be accessed anytime from any device, even offline.
Learn more »
Give kudos to tab author, rate the tab!
1 2 3 4 5
comments
print report bad tab
2 comments total.
0 reply
bonjidonk 142 Dec 22, 2007 11:44 AM

really good tab. it works with both the Split-EP and Sirens And Condolences versions of this song. but it is easier to
play if you use the A string also; you don't need to do it all on the E string.

0 reply
NovaPulse 10 Oct 01, 2008 07:24 PM

ya seriously... your e string must get alot of wear on it... it's alot easier to play this using the a string. all those 5 becomes 0 on the a string. Hand movement sucks and is terribly unproffesional.

Solid Tab though, sounds good.

guest
Wanna post a correction for this tab? Suggest correction