Oops, an error
Loading. Please wait.

Landing Feet First tab

version 2
version 2

Whole song

Interactive

by Bayside
21,032 views 12 this week
4 commentsread comments
1 2 3 4 5
x 4
add to favorites
×
Save as Personal and add changes to this tab that will be seen only by you. Learn more ›
×
You can save this tab as Personal to edit and correct it or add notes. All changes will be seen only by you. Learn more »
launch autoscroll
font size
0
reset
how to read this tab
guitar tuner
edit
Autoscroll
slow
fast
+/-
esc
set tempo
stop
Author
Difficulty
Landing Feet First by Bayside

Tabbed by Andrew Adams

TOP GUITAR - Rhythm - Anthony Raneri
BOTTOM GUITAR - Lead - Jack O'Shea

Tuned Whole Step Down or D Standard


D  :----------------|----------------|----------------|----------------|
A  :----------------|------------4---|----*-----------|------------4---|
F  :----------------|----------------|----4---*-------|----------------|
C  :----------------|----4---*-------|--------4---*---|----4---*-------|
G  :----------------|2---*---2---*---|------------1--/|2---*---2---*---|
D  :----------------|----------------|----------------|----------------|

D  :----------------|----------------|----------------|----------------|
A  :----------------|----------------|----------------|----------------|
F  :----------------|----------------|----------------|----------------|
C  :----------------|----------------|----------------|----------------|
G  :----------------|----------------|----------------|----------------|
D  :----------------|----------------|----------------|----------------|

============================================================================

D  :----------------|----------------|----------------|----------------|
A  :*---------------|----------------|----------------|----------------|
F  :4---*-----------|4---4---4---4---|3---3---3---3---|8---8---8---8---|
C  :----4---*-------|4---4---4---4---|4---4---4---4---|8---8---8---8---|
G  :--------2---1---|2---2---2---2---|1---1---1---1---|6---6---6---6---|
D  :----------------|----------------|----------------|----------------|

D  :----------------|----------------|----------------|----------------|
A  :----------------|----------------|----------------|----------------|
F  :----------------|----------------|----------------|----------------|
C  :----------------|----------------|----------------|----------------|
G  :----------------|----------------|----------------|----------------|
D  :----------------|----------------|----------------|----------------|

============================================================================

D  :----------------|----------------|----------------|----------------|
A  :----------------|----------------|----------------|----------------|
F  :9---9---9---2---|*---------------|----------------|----------------|
C  :9---9---9---2---|6---6---6---6---|4---4---4---4---|2---2---2---2---|
G  :7---7---7---0---|6---6---6---6---|4---4---4---4---|2---2---2---2---|
D  :----------------|4---4---4---4---|2---2---2---2---|0---0---0---0---|

D  :----------------|----------------|----------------|----------------|
A  :----------------|----------------|----------------|----------------|
F  :----------------|----------------|----------------|----------------|
C  :----------------|----------------|----------------|----------------|
G  :----------------|----------------|----------------|----------------|
D  :----------------|----------------|----------------|----------------|

============================================================================

D  :----------------|----------------|----------------|*---------------|
A  :----------------|----------------|----------------|*---------------|
F  :----------------|----------------|----------------|*---4---4---4---|
C  :4---4---4---4---|2---2---2---2---|4---4---4---4---|*---4---4---4---|
G  :4---4---4---4---|2---2---2---2---|4---4---4---4---|*---2---2---2---|
D  :2---2---2---2---|0---0---0---0---|2---2---2---2---|*---------------|

D  :----------------|----------------|----------------|----------------|
A  :----------------|----------------|----------------|----------------|
F  :----------------|----------------|----------------|----------------|
C  :----------------|----------------|----------------|----------------|
G  :----------------|----------------|----------------|----------------|
D  :----------------|----------------|----------------|----------------|

============================================================================

D  :----------------|----------------|----------------|----------------|
A  :----------------|----------------|----------------|----------------|
F  :----------------|----------------|----------------|4---4---4---4---|
C  :6---6---6---6---|2---2---2---2---|4---4---4---4---|4---4---4---4---|
G  :6---6---6---6---|2---2---2---2---|4---4---4---4---|2---2---2---2---|
D  :4---4---4---4---|0---0---0---0---|2---2---2---2---|*---------------|

D  :----------------|----------------|----------------|----------------|
A  :----------------|----------------|----------------|----------------|
F  :----------------|----------------|----------------|----------------|
C  :----------------|----------------|----------------|----------------|
G  :----------------|----------------|----------------|----------------|
D  :----------------|----------------|----------------|----------------|

============================================================================

D  :----------------|----------------|----------------|----------------|
A  :----------------|----------------|----------------|----------------|
F  :4---4---4---4---|*---------------|----------------|4---4---4---4---|
C  :4---4---4---4---|2---2---2---2---|4---4---4---4---|4---4---4---4---|
G  :2---2---2---2---|2---2---2---2---|4---4---4---4---|2---2---2---2---|
D  :----------------|0---0---0---0---|2---2---2---2---|*---------------|

D  :----------------|----------------|----------------|----------------|
A  :----------------|----------------|----------------|----------------|
F  :----------------|----------------|----------------|----------------|
C  :----------------|----------------|----------------|----------------|
G  :----------------|----------------|----------------|----------------|
D  :----------------|----------------|----------------|----------------|

============================================================================

D  :----------------|----------------|----------------|----------------|
A  :----------------|----------------|----------------|----------------|
F  :4---4---4---4---|*---------------|----------------|----------------|
C  :4---4---4---4---|2---2---2---2---|4---4---4---4---|6---6---6---6---|
G  :2---2---2---2---|2---2---2---2---|4---4---4---4---|6---6---6---6---|
D  :----------------|0---0---0---0---|2---2---2---2---|4---4---4---4---|

D  :----------------|----------------|----------------|----------------|
A  :----------------|----------------|----------------|----------------|
F  :----------------|----------------|----------------|----------------|
C  :----------------|----------------|----------------|----------------|
G  :----------------|----------------|----------------|----------------|
D  :----------------|----------------|----------------|----------------|

============================================================================

D  :----------------|----------------|----------------|----------------|
A  :----------------|----------------|----------------|----------------|
F  :----------------|----------------|----------------|4---4---4---4---|
C  :4---4---4---4---|2---2---2---2---|4---4---4---4---|4---4---4---4---|
G  :4---4---4---4---|2---2---2---2---|4---4---4---4---|2---2---2---2---|
D  :2---2---2---2---|0---0---0---0---|2---2---2---2---|*---------------|

D  :----------------|----------------|----------------|----------------|
A  :----------------|----------------|----------------|----------------|
F  :----------------|----------------|----------------|----------------|
C  :----------------|----------------|----------------|----------------|
G  :----------------|----------------|----------------|----------------|
D  :----------------|----------------|----------------|----------------|

============================================================================

D  :----------------|----------------|----------------|----------------|
A  :----------------|----------------|----------------|----------------|
F  :4---4---4---*---|*---------------|----------------|8---8---8---8---|
C  :4---4---4---7---|6---6---6---6---|6---6---6---6---|9---9---9---9---|
G  :2---2---2---7---|6---6---6---6---|6---6---6---6---|6---6---6---6---|
D  :------------5---|4---4---4---4---|4---4---4---4---|*---------------|

D  :----------------|----------------|----------------|----------------|
A  :----------------|----------------|----------------|----------------|
F  :----------------|----------------|----------------|----------------|
C  :----------------|----------------|----------------|----------------|
G  :----------------|----------------|----------------|----------------|
D  :----------------|----------------|----------------|----------------|

============================================================================

D  :----------------|----------------|----------------|--------------------|
A  :----------------|----------------|----------------|--------------------|
F  :8---8---8---8---|9---9---9---9---|9---9---9---9---|11---11---11---11---|
C  :9---9---9---9---|9---9---9---9---|9---9---9---9---|11---11---11---11---|
G  :6---6---6---6---|7---7---7---7---|7---7---7---7---|-9----9----9----9---|
D  :----------------|----------------|----------------|--------------------|

D  :----------------|----------------|----------------|--------------------|
A  :----------------|----------------|----------------|--------------------|
F  :----------------|----------------|----------------|--------------------|
C  :----------------|----------------|----------------|--------------------|
G  :----------------|----------------|----------------|--------------------|
D  :----------------|----------------|----------------|--------------------|

============================================================================

D  :-------------------|----------------|----------------|----------------|
A  :-------------------|----------------|----------------|----------------|
F  :11---11---11---*---|----------------|----------------|8---8---8---8---|
C  :11---11---11---7---|6---6---6---6---|6---6---6---6---|9---9---9---9---|
G  :-9----9----9---7---|6---6---6---6---|6---6---6---6---|6---6---6---6---|
D  :---------------5---|4---4---4---4---|4---4---4---4---|*---------------|

D  :-------------------|----------------|----------------|----------------|
A  :-------------------|----------------|----------------|----------------|
F  :-------------------|----------------|----------------|----------------|
C  :-------------------|----------------|----------------|----------------|
G  :-------------------|----------------|----------------|----------------|
D  :-------------------|----------------|----------------|----------------|

============================================================================

D  :----------------|----------------|----------------|------------------|
A  :----------------|----------------|----------------|------------------|
F  :8---8---8---8---|9---9---9---9---|9---9---9---9---|11~---------------|
C  :9---9---9---9---|9---9---9---9---|9---9---9---9---|11~---------------|
G  :6---6---6---6---|7---7---7---7---|7---7---7---7---|-9~---------------|
D  :----------------|----------------|----------------|------------------|

D  :----------------|----------------|----------------|------------------|
A  :----------------|----------------|----------------|------------------|
F  :----------------|----------------|----------------|------------------|
C  :----------------|----------------|----------------|------------------|
G  :----------------|----------------|----------------|------------------|
D  :----------------|----------------|----------------|------------------|

============================================================================

D  :-----------------|----------------|----------------|----------------|
A  :-----------------|----------------|----------------|----------------|
F  :--------11-------|4---4---4---4---|4---4---4---4---|3---3---3---3---|
C  :--------11-------|4---4---4---4---|4---4---4---4---|4---4---4---4---|
G  :---------9-------|2---2---2---2---|2---2---2---2---|1---1---1---1---|
D  :-----------------|----------------|----------------|----------------|

D  :-----------------|----------------|----------------|----------------|
A  :-----------------|----------------|----------------|----------------|
F  :-----------------|------------8-6-|8-6-8---*-------|------------8-6-|
C  :-----------------|----------------|--------9-------|----*-----------|
G  :-----------------|----------------|----------------|----------------|
D  :-----------------|----------------|----------------|----------------|

============================================================================

D  :----------------|----------------|----------------|------------------|
A  :----------------|----------------|----------------|------------------|
F  :3---3---3---3---|8---8---8---8---|8---8---8---8---|-9---9----9---9---|
C  :4---4---4---4---|8---8---8---8---|8---8---8---8---|-9---9----9---9---|
G  :1---1---1---1---|6---6---6---6---|6---6---6---6---|-7---7----7---7---|
D  :----------------|----------------|----------------|------------------|

D  :----------------|----------------|----------------|------------------|
A  :------------7---|--------*-------|----------------|------------------|
F  :8-6-8---*-------|------------8-6-|8-6-8---*-------|------------------|
C  :--------9---*---|----------------|--------9---*---|-*---9---11---9---|
G  :----------------|----------------|------------9---|11---*------------|
D  :----------------|----------------|----------------|------------------|

============================================================================

D  :-------------------|----------------|----------------|----------------|
A  :-------------------|----------------|----------------|----------------|
F  :-------------------|4---4---4---4---|3---3---3---3---|8---8---8---8---|
C  :-4----4---4----4---|4---4---4---4---|4---4---4---4---|8---8---8---8---|
G  :-4----4---4----4---|2---2---2---2---|1---1---1---1---|6---6---6---6---|
D  :-2----2---2----2---|*---------------|----------------|----------------|

D  :-------------------|----------------|----------------|----------------|
A  :-------------------|----------------|----------------|----------------|
F  :-------------------|----------------|----------------|----------------|
C  :12---11---9----*---|----------------|----------------|----------------|
G  :--------------11---|9-------*-------|----------------|----------------|
D  :-------------------|----------------|----------------|----------------|

============================================================================

D  :----------------|----------------|----------------|----------------|
A  :----------------|----------------|----------------|----------------|
F  :9---9---9---9---|*---------------|----------------|----------------|
C  :9---9---9---9---|6---6---6---6---|4---4---4---4---|4---4---4---4---|
G  :7---7---7---7---|6---6---6---6---|4---4---4---4---|4---4---4---4---|
D  :----------------|4---4---4---4---|2---2---2---2---|0---0---0---0---|

D  :----------------|----------------|----------------|----------------|
A  :----------------|----------------|----------------|----------------|
F  :----------------|----------------|----------------|----------------|
C  :----------------|----------------|----------------|----------------|
G  :----------------|----------------|----------------|----------------|
D  :----------------|----------------|----------------|----------------|

============================================================================

D  :----------------|----------------|----------------|----------------|
A  :----------------|----------------|----------------|----------------|
F  :----------------|----------------|----------------|4---4---4---4---|
C  :4---4---4---4---|2---2---2---2---|4---4---4---4---|4---4---4---4---|
G  :4---4---4---4---|2---2---2---2---|4---4---4---4---|2---2---2---2---|
D  :2---2---2---2---|0---0---0---0---|2---2---2---2---|----------------|

D  :----------------|----------------|----------------|----------------|
A  :----------------|----------------|----------------|----------------|
F  :----------------|----------------|----------------|----------------|
C  :----------------|----------------|----------------|----------------|
G  :----------------|----------------|----------------|----------------|
D  :----------------|----------------|----------------|----------------|

============================================================================

D  :----------------|----------------|----------------|----------------|
A  :----------------|----------------|----------------|----------------|
F  :----------------|----------------|----------------|4---4---4---4---|
C  :6---6---6---6---|2---2---2---2---|4---4---4---4---|4---4---4---4---|
G  :6---6---6---6---|2---2---2---2---|4---4---4---4---|2---2---2---2---|
D  :4---4---4---4---|0---0---0---0---|2---2---2---2---|----------------|

D  :----------------|----------------|----------------|----------------|
A  :----------------|----------------|----------------|----------------|
F  :----------------|----------------|----------------|----------------|
C  :----------------|----------------|----------------|----------------|
G  :----------------|----------------|----------------|----------------|
D  :----------------|----------------|----------------|----------------|

============================================================================

D  :----------------|----------------|----------------|----------------|
A  :----------------|----------------|----------------|----------------|
F  :4---4---4---4---|----------------|----------------|4---4---4---4---|
C  :4---4---4---4---|2---2---2---2---|4---4---4---4---|4---4---4---4---|
G  :2---2---2---2---|2---2---2---2---|4---4---4---4---|2---2---2---2---|
D  :----------------|0---0---0---0---|2---2---2---2---|----------------|

D  :----------------|----------------|----------------|----------------|
A  :----------------|----------------|----------------|----------------|
F  :----------------|----------------|----------------|----------------|
C  :----------------|----------------|----------------|----------------|
G  :----------------|----------------|----------------|----------------|
D  :----------------|----------------|----------------|----------------|

============================================================================

D  :----------------|----------------|----------------|----------------|
A  :----------------|----------------|----------------|----------------|
F  :4---4---4---4---|----------------|----------------|----------------|
C  :4---4---4---4---|2---2---2---2---|4---4---4---4---|6---6---6---6---|
G  :2---2---2---2---|2---2---2---2---|4---4---4---4---|6---6---6---6---|
D  :----------------|0---0---0---0---|2---2---2---2---|4---4---4---4---|

D  :----------------|----------------|----------------|----------------|
A  :----------------|----------------|----------------|----------------|
F  :----------------|----------------|----------------|----------------|
C  :----------------|----------------|----------------|----------------|
G  :----------------|----------------|----------------|----------------|
D  :----------------|----------------|----------------|----------------|

============================================================================

D  :----------------|----------------|----------------|----------------|
A  :----------------|----------------|----------------|----------------|
F  :----------------|----------------|----------------|4---4---4---4---|
C  :4---4---4---4---|2---2---2---2---|4---4---4---4---|4---4---4---4---|
G  :4---4---4---4---|2---2---2---2---|4---4---4---4---|2---2---2---2---|
D  :2---2---2---2---|0---0---0---0---|2---2---2---2---|*---------------|

D  :----------------|----------------|----------------|----------------|
A  :----------------|----------------|----------------|----------------|
F  :----------------|----------------|----------------|----------------|
C  :----------------|----------------|----------------|----------------|
G  :----------------|----------------|----------------|----------------|
D  :----------------|----------------|----------------|----------------|

============================================================================

D  :----------------|----------------|----------------|----------------|
A  :----------------|----------------|----------------|----------------|
F  :4---4---4---2---|*---------------|----------------|8---8---8---8---|
C  :4---4---4---2---|6---6---6---6---|6---6---6---6---|9---9---9---9---|
G  :2---2---2---0---|6---6---6---6---|6---6---6---6---|6---6---6---6---|
D  :----------------|4---4---4---4---|4---4---4---4---|*---------------|

D  :----------------|----------------|----------------|----------------|
A  :----------------|----------------|----------------|----------------|
F  :----------------|----------------|----------------|8---8---8---8---|
C  :----------------|6---6---6---6---|6---6---6---6---|9---9---9---9---|
G  :----------------|6---6---6---6---|6---6---6---6---|6---6---6---6---|
D  :----------------|4---4---4---4---|4---4---4---4---|*---------------|

============================================================================

D  :----------------|----------------|----------------|--------------------|
A  :----------------|----------------|----------------|--------------------|
F  :8---8---8---8---|9---9---9---9---|9---9---9---9---|11---11---11---11---|
C  :9---9---9---9---|9---9---9---9---|9---9---9---9---|11---11---11---11---|
G  :6---6---6---6---|7---7---7---7---|7---7---7---7---|-9----9----9----9---|
D  :----------------|----------------|----------------|--------------------|

D  :----------------|----------------|----------------|--------------------|
A  :----------------|----------------|----------------|--------------------|
F  :8---8---8---8---|9---9---9---9---|9---9---9---9---|11---11---11---11---|
C  :9---9---9---9---|9---9---9---9---|9---9---9---9---|11---11---11---11---|
G  :6---6---6---6---|7---7---7---7---|7---7---7---7---|-9----9----9----9---|
D  :----------------|7---7---7---7---|7---7---7---7---|-*------------------|

============================================================================

D  :-------------------|----------------|----------------|----------------|
A  :-------------------|----------------|----------------|----------------|
F  :11---11---11---*---|----------------|----------------|8---8---8---8---|
C  :11---11---11---7---|6---6---6---6---|6---6---6---6---|9---9---9---9---|
G  :-9----9----9---7---|6---6---6---6---|6---6---6---6---|6---6---6---6---|
D  :---------------5---|4---4---4---4---|4---4---4---4---|*---------------|

D  :-------------------|----------------|----------------|----------------|
A  :-------------------|----------------|----------------|----------------|
F  :11---11---11---*---|----------------|----------------|8---8---8---8---|
C  :11---11---11---7---|6---6---6---6---|6---6---6---6---|9---9---9---9---|
G  :-9----9----9---7---|6---6---6---6---|6---6---6---6---|6---6---6---6---|
D  :---------------5---|4---4---4---4---|4---4---4---4---|*---------------|

============================================================================

D  :----------------|----------------|----------------|------------------|
A  :----------------|----------------|----------------|------------------|
F  :8---8---8---8---|9---9---9---9---|9---9---9---9---|11~---------------|
C  :9---9---9---9---|9---9---9---9---|9---9---9---9---|11~---------------|
G  :6---6---6---6---|7---7---7---7---|7---7---7---7---|-9~---------------|
D  :----------------|----------------|----------------|------------------|

D  :----------------|----------------|----------------|------------------|
A  :----------------|----------------|----------------|------------------|
F  :8---8---8---8---|9---9---9---9---|9---9---9---9---|11~---------------|
C  :9---9---9---9---|9---9---9---9---|9---9---9---9---|11~---------------|
G  :6---6---6---6---|7---7---7---7---|7---7---7---7---|-9~---------------|
D  :----------------|7---7---7---7---|7---7---7---7---|-*----------------|

============================================================================

D  :----------------|------------------|--------------------|
A  :----------------|------------------|--------------------|
F  :--------*-------|11~---------------|--------11----------|
C  :--------*-------|11~---------------|--------11----------|
G  :--------*-------|-9~---------------|---------9----------|
D  :----------------|------------------|--------------------|

D  :----------------|------------------|--------------------|
A  :----------------|------------------|--------------------|
F  :--------*-------|11~---------------|---------*----------|
C  :--------*-------|11~---------------|---------*----------|
G  :--------*-------|-9~---------------|---------*----------|
D  :----------------|-*----------------|--------------------|

============================================================================

D  :----------------|----------------|----------------|-------------------|
A  :----------------|----------------|----------------|-------------------|
F  :*---------------|----------------|6---6---x---6---|6----6----x----6---|
C  :6---6---x---6---|6---6---x---6---|6---6---x---6---|6----6----x----6---|
G  :6---6---x---6---|6---6---x---6---|4---4---x---4---|4----4----x----4---|
D  :4---4---x---4---|4---4---x---4---|*---------------|-------------------|

D  :----------------|----------------|----------------|-------------------|
A  :----------------|----------------|----------------|-------------------|
F  :----------------|----------------|----------------|----13---11----*---|
C  :----------------|----------------|----------------|--------------13---|
G  :----------------|----------------|----------------|-------------------|
D  :----------------|----------------|----------------|-------------------|

============================================================================

D  :------------------|----------------|----------------|----------------|
A  :------------------|----------------|----------------|----------------|
F  :-*----------------|----------------|4-----------4---|8---8---8---8---|
C  :-4---4----x---4---|4---4---x---4---|4-----------4---|8---8---8---8---|
G  :-4---4----x---4---|4---4---x---4---|2-----------2---|6---6---6---6---|
D  :-2---2----x---2---|2---2---x---2---|*-----------*---|----------------|

D  :------------------|----------------|----------------|----------------|
A  :------------------|----------------|----------------|----------------|
F  :------------------|----------------|----------------|----------------|
C  :11---9---11-------|----*-----------|----9-----------|*---9---9---*---|
G  :------------------|----9-------9---|9---*-----------|9---*-------9---|
D  :------------------|----------------|----------------|----------------|

============================================================================

D  :----------------|----------------|----------------|-------------------|
A  :----------------|----------------|----------------|-------------------|
F  :*---------------|----------------|6---6---x---6---|6----6----x----6---|
C  :6---6---x---6---|6---6---x---6---|6---6---x---6---|6----6----x----6---|
G  :6---6---x---6---|6---6---x---6---|4---4---x---4---|4----4----x----4---|
D  :4---4---x---4---|4---4---x---4---|*---------------|-------------------|

D  :----------------|----------------|----------------|-------------------|
A  :----------------|----------------|----------------|-------------------|
F  :----------------|----------------|----------------|----13---11----*---|
C  :----------------|----------------|----------------|--------------13---|
G  :*---------------|----------------|----------------|-------------------|
D  :----------------|----------------|----------------|-------------------|

============================================================================

D  :------------------|----------------|----------------|----------------|
A  :------------------|----------------|----------------|----------------|
F  :-*----------------|----------------|4---4---4---4---|8---8---8---8---|
C  :-4---4----x---4---|4---4---x---4---|4---4---4---4---|8---8---8---8---|
G  :-4---4----x---4---|4---4---x---4---|2---2---2---2---|6---6---6---6---|
D  :-2---2----x---2---|2---2---x---2---|*---*---*---*---|----------------|

D  :------------------|----------------|----------------|----------------|
A  :------------------|----------------|----------------|----------------|
F  :------------------|----------------|----------------|----------------|
C  :11---9---11-------|----*-----------|----9-----------|*---9---9---*---|
G  :------------------|----9-------9---|9---*-----------|9---*-------9---|
D  :------------------|----------------|----------------|----------------|

============================================================================

D  :---------------------|----------------------|--------------------|
A  :---------------------|----------------------|--------------------|
F  :-9----9-----9----9---|-9-----9----9-----9---|11---11---11---11---|
C  :-9----9-----9----9---|-9-----9----9-----9---|11---11---11---11---|
G  :-7----7-----7----7---|-7-----7----7-----7---|-9----9----9----9---|
D  :---------------------|----------------------|--------------------|

D  :---------------------|----------------------|--------------------|
A  :---------------------|----------------------|--------------------|
F  :-----------11----*---|-*----11----*----11---|-*------------------|
C  :11---11-13--*---11---|11-13--*---11-13--*---|13---11----9----8---|
G  :-*----*--------------|----------------------|--------------------|
D  :---------------------|----------------------|--------------------|

============================================================================

D  :--------------------|-----------------|-------------------|
A  :--------------------|-----------------|-------------------|
F  :11---11---11---11---|4---4----4---4---|-3----3---3----3---|
C  :11---11---11---11---|4---4----4---4---|-4----4---4----4---|
G  :-9----9----9----9---|2---2----2---2---|-1----1---1----1---|
D  :--------------------|-----------------|-------------------|

D  :--------------------|-----------------|-------------------|
A  :--------------------|-----------------|-------------------|
F  :--------------------|-----------------|--------------11---|
C  :-9----8----8----9---|--------13-------|11---13--------*---|
G  :--------------------|-----------------|-------------------|
D  :--------------------|-----------------|-------------------|

============================================================================

D  :------------------|------------------|------------------|
A  :------------------|------------------|------------------|
F  :8---8----8----8---|9----9----9---9---|*-----------------|
C  :8---8----8----8---|9----9----9---9---|6---6----6----6---|
G  :6---6----6----6---|7----7----7---7---|6---6----6----6---|
D  :------------------|------------------|4---4----4----4---|

D  :------------------|------------------|------------------|
A  :------------------|------------------|------------------|
F  :---------*--------|------------------|------------------|
C  :--------13---11---|----13---11---9---|----*---13---11---|
G  :------------------|------------------|------------------|
D  :------------------|------------------|------------------|

============================================================================

D  :-----------------|------------------|-----------------|
A  :-----------------|------------------|-----------------|
F  :-----------------|------------------|-----------------|
C  :4---4---4----4---|2----2----2---2---|-4---4---4---4---|
G  :4---4---4----4---|2----2----2---2---|-4---4---4---4---|
D  :2---2---2----2---|0----0----0---0---|-2---2---2---2---|

D  :-----------------|------------------|-----------------|
A  :-----------------|------------------|-----------------|
F  :-----------------|------------------|-----------------|
C  :----9-------11---|----13---11---9---|11---9---8-------|
G  :-----------------|------------------|-------------9---|
D  :-----------------|------------------|-----------------|

============================================================================

D  :-----------------|------------------|-----------------|----------------|
A  :-----------------|------------------|-----------------|----------------|
F  :-----------------|------------------|-4---4---4---4---|*---------------|
C  :2---2----2---2---|-4---4----4---4---|-4---4---4---4---|6---6---6---6---|
G  :2---2----2---2---|-4---4----4---4---|-2---2---2---2---|6---6---6---6---|
D  :0---0----0---0---|-2---2----2---2---|-*---------------|4---4---4---4---|

D  :-----------------|------------------|-----------------|----------------|
A  :-----------------|------------------|12-------*-------|----------------|
F  :-----------------|---------15-------|-*-------8-9-8-6-|8-6-*-----------|
C  :6-------13-------|11--------*-------|-----------------|----9-8-9-8-*---|
G  :*-------14-------|13--------*-------|-----------------|------------9---|
D  :-----------------|------------------|-----------------|----------------|

============================================================================

D  :------------------|-------------------|----------------|
A  :------------------|-------------------|----------------|
F  :------------------|-------------------|4---4---4---4---|
C  :-2---2----2---2---|-4----4---4----4---|4---4---4---4---|
G  :-2---2----2---2---|-4----4---4----4---|2---2---2---2---|
D  :-0---0----0---0---|-2----2---2----2---|*---------------|

D  :------------------|-------------------|----------------|
A  :------------------|-------------------|----------------|
F  :------------------|--------------11---|----------------|
C  :---------13-------|11---13--------*---|----------------|
G  :11--------*-------|-------------------|----------------|
D  :------------------|-------------------|----------------|

============================================================================

D  :----------------|------------------|------------------|
A  :----------------|------------------|------------------|
F  :4---4---4---4---|*-----------------|------------------|
C  :4---4---4---4---|2---2----2----2---|4----4---4----4---|
G  :2---2---2---2---|2---2----2----2---|4----4---4----4---|
D  :----------------|0---0----0----0---|2----2---2----2---|

D  :----------------|------------------|------------------|
A  :----------------|------------------|------------------|
F  :----------------|*-----------------|------------------|
C  :----------------|------------------|------------------|
G  :----------------|------------------|------------------|
D  :----------------|--------11---11---|9---11-------14---|

============================================================================

D  :------------------|-------------------|------------------|
A  :------------------|-------------------|------------------|
F  :4---4----4----4---|-4----4---4----4---|*-----------------|
C  :4---4----4----4---|-4----4---4----4---|2---2----2----2---|
G  :2---2----2----2---|-2----2---2----2---|2---2----2----2---|
D  :*-----------------|-------------------|0---0----0----0---|

D  :------------------|-------------------|------------------|
A  :------------------|-------------------|------------------|
F  :------------------|--------------11---|---------*--------|
C  :--------13---13---|11---13--------*---|------------------|
G  :------------------|-------------------|------------------|
D  :---------*--------|-------------------|--------11---11---|

============================================================================

D  :------------------|------------------|-----------------|
A  :------------------|------------------|-----------------|
F  :------------------|4---4----4----4---|4---4---4----4---|
C  :4----4---4----4---|4---4----4----4---|4---4---4----4---|
G  :4----4---4----4---|2---2----2----2---|2---2---2----2---|
D  :2----2---2----2---|*-----------------|-----------------|

D  :------------------|------------------|-----------------|
A  :------------------|------------------|-----------------|
F  :------------------|------------------|-----------------|
C  :------------------|--------13---11---|----9-------11---|
G  :------------------|------------------|-----------------|
D  :9---11-------14---|---------*--------|-----------------|

============================================================================

D  :-----------------|------------------|-----------------|
A  :-----------------|------------------|-----------------|
F  :*----------------|------------------|4---4---4----4---|
C  :2---2----2---2---|-4----4---4---4---|4---4---4----4---|
G  :2---2----2---2---|-4----4---4---4---|2---2---2----2---|
D  :0---0----0---0---|-2----2---2---2---|*----------------|

D  :-----------------|------------------|-----------------|
A  :-----------------|------------------|-----------------|
F  :-----------------|------------------|--------8----9---|
C  :----9---11---9---|12---11---9---6---|9-------9---11---|
G  :-----------------|------------------|-----------------|
D  :-----------------|------------------|-----------------|

============================================================================

D  :--------------------|-----------------|----------------|
A  :--------------------|-----------------|----------------|
F  :-4----4----4----3---|-*---------------|----------------|
C  :-4----4----4----4---|-6---6---6---6---|6---6---6---6---|
G  :-2----2----2----1---|-6---6---6---6---|6---6---6---6---|
D  :--------------------|-4---4---4---4---|4---4---4---4---|

D  :--------------------|-----------------|----------------|
A  :---------------11---|12---------------|*---------------|
F  :-9---11---11---11---|13---------------|*---------------|
C  :11---13---13----*---|-----------------|----------------|
G  :--------------------|-----------------|----------------|
D  :--------------------|-----------------|----------------|

============================================================================

D  :----------------|----------------|----------------|----------------|
A  :----------------|----------------|----------------|----------------|
F  :8---8---8---8---|8---8---8---8---|9---9---9---9---|9---9---9---9---|
C  :9---9---9---9---|9---9---9---9---|9---9---9---9---|9---9---9---9---|
G  :6---6---6---6---|6---6---6---6---|7---7---7---7---|7---7---7---7---|
D  :*---------------|----------------|----------------|----------------|

D  :----------------|----------------|----------------|----------------|
A  :----------------|----------------|----------------|----------------|
F  :8---8---8---8---|8---8---8---8---|9---9---9---9---|9---9---9---9---|
C  :9---9---9---9---|9---9---9---9---|9---9---9---9---|9---9---9---9---|
G  :6---6---6---6---|6---6---6---6---|7---7---7---7---|7---7---7---7---|
D  :*---------------|----------------|7---7---7---7---|7---7---7---7---|

============================================================================

D  :--------------------|-------------------|----------------|
A  :--------------------|-------------------|----------------|
F  :11---11---11---11---|11---11---11---*---|----------------|
C  :11---11---11---11---|11---11---11---7---|6---6---6---6---|
G  :-9----9----9----9---|-9----9----9---7---|6---6---6---6---|
D  :--------------------|---------------5---|4---4---4---4---|

D  :--------------------|-------------------|----------------|
A  :--------------------|-------------------|----------------|
F  :11---11---11---11---|11---11---11---*---|----------------|
C  :11---11---11---11---|11---11---11---7---|6---6---6---6---|
G  :-9----9----9----9---|-9----9----9---7---|6---6---6---6---|
D  :-*------------------|---------------5---|4---4---4---4---|

============================================================================

D  :----------------|----------------|----------------|----------------|
A  :----------------|----------------|----------------|----------------|
F  :----------------|8---8---8---8---|8---8---8---8---|9---9---9---9---|
C  :6---6---6---6---|9---9---9---9---|9---9---9---9---|9---9---9---9---|
G  :6---6---6---6---|6---6---6---6---|6---6---6---6---|7---7---7---7---|
D  :4---4---4---4---|*---------------|----------------|----------------|

D  :----------------|----------------|----------------|----------------|
A  :----------------|----------------|----------------|----------------|
F  :----------------|8---8---8---8---|8---8---8---8---|9---9---9---9---|
C  :6---6---6---6---|9---9---9---9---|9---9---9---9---|9---9---9---9---|
G  :6---6---6---6---|6---6---6---6---|6---6---6---6---|7---7---7---7---|
D  :4---4---4---4---|*---------------|----------------|7---7---7---7---|

============================================================================

D  :----------------|------------------|----------------|------------------|
A  :----------------|------------------|----------------|------------------|
F  :9---9---9---9---|11~---------------|--------*-------|11~---------------|
C  :9---9---9---9---|11~---------------|--------*-------|11~---------------|
G  :7---7---7---7---|-9~---------------|--------*-------|-9~---------------|
D  :----------------|------------------|----------------|------------------|

D  :----------------|------------------|----------------|------------------|
A  :----------------|------------------|----------------|------------------|
F  :9---9---9---9---|11~---------------|--------*-------|11~---------------|
C  :9---9---9---9---|11~---------------|--------*-------|11~---------------|
G  :7---7---7---7---|-9~---------------|--------*-------|-9~---------------|
D  :7---7---7---7---|-*----------------|----------------|-*----------------|

============================================================================

D  :----------------|----------------|----------------|----------------|
A  :----------------|----------------|----------------|----------------|
F  :----------------|4---------------|----------------|----------------|
C  :----------------|4---------------|----------------|----------------|
G  :----------------|2---------------|----------------|----------------|
D  :----------------|----------------|----------------|----------------|

D  :----------------|----------------|----------------|----------------|
A  :----------------|----------------|----------------|----------------|
F  :----------------|4---------------|----------------|----------------|
C  :----------------|4---------------|----------------|----------------|
G  :----------------|2---------------|----------------|----------------|
D  :----------------|----------------|----------------|----------------|

============================================================================

D  :*---------------|
A  :*---------------|
F  :*---------------|
C  :*---------------|
G  :*---------------|
D  :*---------------|

D  :*---------------|
A  :*---------------|
F  :*---------------|
C  :*---------------|
G  :*---------------|
D  :*---------------|


            
            
Suggest correction
Creating personal tab
Creating personal tab
You can edit any tab online and save it as your Personal.

You can edit, replace or remove any tab part or add personal notes – all changes will be seen only by you.

Personal tabs can be accessed anytime from any device, even offline.
Learn more »
comments
print report bad tab
4 comments total. Showing first comments.
0 reply
shugo449 530 Jul 16, 2007 08:30 AM

nicccccceeeeeeeeeee

0 reply
NNoodleNose 270 Jul 16, 2007 02:53 PM

not bad, I mean you got the notes, it's just kinda hard to read... like this for example:

D:-----------------|----------------|----------------|----------------|
A:-----------------|----------------|----------------|----------------|
F:-----------------|------------8-6-|8-6-8---*-------|------------8-6-|
C:-----------------|----------------|--------9-------|----*-----------|
G:-----------------|----------------|----------------|----------------|
D:-----------------|----------------|----------------|----------------|
=========================================================================
D:----------------|----------------|----------------|------------------|
A:------------7---|--------*-------|----------------|------------------|
F:8-6-8---*-------|------------8-6-|8-6-8---*-------|------------------|
C:--------9---*---|----------------|--------9---*---|-*---9---11---9---|
G:----------------|----------------|------------9---|11---*------------|
D:----------------|----------------|----------------|------------------|
=========================================================================
D:-------------------|----------------|----------------|----------------|
A:-------------------|----------------|----------------|----------------|
F:-------------------|----------------|----------------|----------------|
C:12---11---9----*---|----------------|----------------|----------------|
G:--------------11---|9-------*-------|----------------|----------------|
D:-------------------|----------------|----------------|----------------|

it would be easier to read if you made things a little more specific like:

d|---------------|-----------------|
a|---------------|--------------7v-|
f|-8p6-8p6-8-----|-8p6-8p6-8-------|
c|-----------9---|-----------9-----|
g|---------------|-----------------|
D|---------------|-----------------|

d|-------------------------------------------|
a|-------------------------------------------|
f|-8p6-8p6-8----------9----9-11b(13)-9-------|
c|-----------9---9\11---11-------------11-9v-|
g|-------------------------------------------|
D|-------------------------------------------|

see how it's marked for bends, pull-offs, slides, vibratos, etc.
It just makes it easier to read, instead of guessing what * means.
but other than that not too bad.

0 reply
AndrewAdams 146 Jul 16, 2007 05:40 PM

Yeah, I took it off of a program that I tabbed it on. Sorry.

guest
You may want to rate the tab now too:
select rating
Wanna post a correction for this tab? Suggest correction