Oops, an error
Loading. Please wait.

Megan Chords

version 1
version 1

Acoustic

Whole song

Interactive

7,660 views 24 this week
no commentswrite comment
1 2 3 4 5
x 9
add to favorites
launch autoscroll
font size
0
reset
transpose
0
reset
simplify chords
display chords
guitar tuner
Autoscroll
slow
fast
+/-
esc
set tempo
stop
Help us to improve Ultimate-Guitar.com Take our survey!
×
Author
Difficulty
novice
INTRO A Ab/A F#m E D X2

A           A/Ab
Butter on a summer day
F#m
When she's around
E
I was on the tracks
D
When the gate came down
A            A/Ab
Suddenly I recognized
F#m                         E            D
Those bloodshot rearview mirror eyes as mine

Bm               Dbm7            D   Dm
  I heard that whistle call my name
F#m            D/A
  I almost drove away

Chorus:
          A  A/Ab
But Megan I
       G               F#7                 Bm
had a feeling that you would be on that train
          D                 E
So I just waited there for you

A                 A/Ab
Caught a ride to another town
F#m
Where the air was clean
E                   D
And the sun never goes down
A                  A/Ab
Everyone was standing in a line
F#m                     E       D
Between the landing and the stairs
Bm            Dbm7          D   Dm
  I heard somebody call my name
F#m                      D/A
  I almost climbed the stairs
          A  A/Ab
But Megan I
       G                 F#7             Bm
had a feeling that someday you'd meet me there
          D                  E
So I just waited there for you

SOLO: Chorus Chords x2

A            A/Ab
Butter on a summer day
F#m
When I hear your name
E                            D
It's a dream that never came true
A             A/Ab
Sat down on the tracks
F#m                         E           D
And waited for a train to take me back to you

Bm           Dbm7            D    Dm
  Somebody came and took my hand
F#m              D/A
 And I finally had to go
          A  A/Ab
But Megan I
     G         F#7     Bm
just want you to know

          D                  E
That I waited as long as I could
A              A/E      F#m              A/E
Butter on a summer day when she's around



SOLO:

e|----------------------------5-4--------------------------------------------|
B|-/7~~--5-2----------------------7-5----------------------------------------|
G|-----------4^5^4-2-------------------7p6-7p6-------------------------------|
D|-------------------4-4-----------------------/9p7-9^11^9-7---7-------------|
A|----------------------------------------------------------9----------------|
E|---------------------------------------------------------------------------|

e|---------------------------10-9--5--7-6-6----------------------------------|
B|-12^14~~~---14rb12-10-12~~~----12--------7-6-5----5-----7-5----------------|
G|----------------------------------------------6-7---------7-6-4~~----------|
D|---------------------------------------------------------------------------|
A|---------------------------------------------------------------------------|
E|---------------------------------------------------------------------------|

e|---------------------------------------------------------------------------|
B|------------------------------5^7~~----5^7^5--2-5-2---2--------------------|
G|----2---------------2---4---2-----------------------4---4-2---4-2----------|
D|-/4---4//2---/4-2-4-------4---------------------------------4--------------|
A|-----------2---------------------------------------------------------------|
E|---------------------------------------------------------------------------|
Suggest correction
comments
print report bad tab
guest
You may want to rate the tab now too:
select rating
Wanna post a correction for this tab? Suggest correction