Oops, an error
Loading. Please wait.

Megan tab

version 1
version 1

Whole song

Interactive

by Bayside
14,510 views 3 this week
4 commentsread comments
1 2 3 4 5
x 3
add to favorites
×
Save as Personal and add changes to this tab that will be seen only by you. Learn more ›
×
You can save this tab as Personal to edit and correct it or add notes. All changes will be seen only by you. Learn more »
launch autoscroll
font size
0
reset
how to read this tab
guitar tuner
edit
Autoscroll
slow
fast
+/-
esc
set tempo
stop
Difficulty
intermediate
The tuning is kinda of nutty and there is one challenging stretch in here (the 4th chord
the verses) and so I put this tab as intermediate. To adjust to this tuning base your
off the low A and D because those two won't be changing. As for the timing, listen to 
song and you will get it.

(the first 5 chords of the verses are the same idea as the intro with some higher notes
played on top. I believe these notes to be
                                                 D----7------|
                                                 A----7------|
                                                 F#---7------|
                                                 D-----------|
                                                 A-----------|
                                                 D-----------|
ok,onto the song)

Verse:

Butter....                          When Suddenly...

D--------------------------------|--------------------------------------------|
A--------------------------------|--------------------------------------------|
F#-------------------------------|--------------------------------------------|
D---7----7----7----7----0--------|---7----7----7----7----0--------------------|
A---7----7----7----7----0--------|---7----7----7----7----0--------------------|
D---7----6----4----2----0--------|---7----6----4----2----0--------------------|

I heard...                            I almost...

D--------------------------------|-------------------------------------------|
A--------------------------------|-------------------------------------------|
D--------------------------------|-------------------------------------------|
F#--9----11----12----------------|-----4----0--------------------------------|
A---9----11----12----------------|-----4----0--------------------------------|
D---9----11----12----------------|-----4----0--------------------------------|

Chorus:

But Megan I...

D------------------------------|---------------------------------------------|
A------------------------------|---------------------------------------------|
F#-----------------------------|---------------------------------------------|
D----------7----7----5----4----|----9----12----14----------------------------|
A----------7----7----5----4----|----9----12----14----------------------------|
D----------7----6----5----4----|----9----12----14----------------------------|

Background during solo:

D--------------|------------------------|----------------------------------|
A--------------|------------------------|----------------------------------|
F#-------------|------------------------|----------------------------------|
D----4----0----|----7----7----5----4----|----9----12----14-----------------|
A----4----0----|----7----7----5----4----|----9----12----14-----------------|
D----4----0----|----7----6----5----4----|----9----12----14-----------------|

outro:

Butter...

D-----------------------------------------------------------------------------|
A-----------------------------------------------------------------------------|
F#----------------------------------------------------------------------------|
D----7----7----7----7---------------------------------------------------------|
A----7----7----7----7---------------------------------------------------------|
D----7----6----4----7---------------------------------------------------------|

structure of song:

intro
verse 1
chorus
verse 2
chorus
solo
verse 3
chorus
outro

Great song, hope you enjoy playing it as much as I do.
Suggest correction
Creating personal tab
Creating personal tab
You can edit any tab online and save it as your Personal.

You can edit, replace or remove any tab part or add personal notes – all changes will be seen only by you.

Personal tabs can be accessed anytime from any device, even offline.
Learn more »
Give kudos to tab author, rate the tab!
1 2 3 4 5
comments
print report bad tab
4 comments total. Showing first comments.
0 reply
anticky 63 Aug 02, 2006 06:44 AM

how to you tune to f#?
and which string is meant to be tuned that way, it changes from the D to the G at the start of the tab...

0 reply
aldenschulte 129 Aug 13, 2006 02:35 PM

this is a great song, probably better this way than the original

0 reply
WaShedUP 31 Sep 15, 2006 02:30 PM

dude good job

guest
Wanna post a correction for this tab? Suggest correction