Oops, an error
Loading. Please wait.

Montauk Acoustic solo tab

version 1
version 1

Solo

by Bayside
3,739 views 6 this week
3 commentsread comments
1 2 3 4 5
x 5
add to favorites
×
Save as Personal and add changes to this tab that will be seen only by you. Learn more ›
×
You can save this tab as Personal to edit and correct it or add notes. All changes will be seen only by you. Learn more »
launch autoscroll
font size
0
reset
how to read this tab
guitar tuner
edit
Autoscroll
slow
fast
+/-
esc
set tempo
stop
Author
Difficulty
bayside
montauk acoustic(solo)
tabbed by sean malanowicz

tuning-standard

this is only what jack plays


figure out rythem and everything else yourself, im just giving the notes

----------------------------------------------------------------------------|
----------------------------------------------------------------------------|
-----------------------------------------------10------11-10----10----------|
------------10-11-10-------------------10-11-13--13-11-------11----11-11-10-|
---13-11-13----------13-11-9-13-11-9----------------------------------------|
-------------------------------------13-------------------------------------|


-----------------------------------------------------------------------------|
-----------------------------------------------------------------------------|
-----------------------------------------------------------------------------|
11-13-11-10-8-----------------9----------9-11-9------------------------------|
--------------11-9-11-13-11-9---13-11-13--------13-11-9---8-9-11-9-8-13-11-9-|
-----------------------------------------------------------------------------|


---------------------------------------------------11/12-12-12-11-9-11-12-11-|
------------------------------------------14----14---------------------------|
-------------------------------15---13-15----15------------------------------|
-------------10-11-10--------------------------------------------------------|
-12-13-12-13----------12-13--------------------------------------------------|
-----------------------------------------------------------------------------|


-9--------------------------------------------------------------------------|
---11-11--------------------------------------------------------------------|
-----------9/8----------------9/8------------------------------10-----------|
---------------11----------11-----11------------------10----10--------------|
------------------13-11-13------------13-11-13------------------------------|
-----------------------------------------------11-13-----13-----------------|

tens not 1's and 0's
---------------------------------------------9--11--13--11--13--11--9-------|
----------11--13--14--13--14--13--11----9999--9---9---9---9---9---9---9-----|
-10101010---10--10--10--10--10--10--10--------------------------------------|
----------------------------------------------------------------------------|
----------------------------------------------------------------------------|
----------------------------------------------------------------------------|


-------------------8---8-9-8-9-13-11-9-----------then sumthin with 13 and 12-|
-----7--9--11-9-11---11----------------13-11-10-10---------------------------|
6666-------------------------------------------------------------------------|
-----------------------------------------------------------------------------|
-----------------------------------------------------------------------------|
-----------------------------------------------------------------------------|

this is my first tab but i know its 100% correct

            
            
Suggest correction
Creating personal tab
Creating personal tab
You can edit any tab online and save it as your Personal.

You can edit, replace or remove any tab part or add personal notes – all changes will be seen only by you.

Personal tabs can be accessed anytime from any device, even offline.
Learn more »
comments
print report bad tab
3 comments total.
-1 reply
NFL Saints8726 31 Mar 06, 2007 11:14 AM

that couldn't be more wrong.

+1 reply
rictazero 520 Mar 14, 2007 12:43 PM

wtf are you talking about its perfect

+1 reply
wind123 16 Jul 19, 2007 07:51 PM

very fgood tab 5 outta 5 but 2 things (just helping ya out)

for the very last part its

e|--/14-12-/14-12-/14-12-/14-12--/14-14-14-|

and just letting you know Anthonys Part goes like this

e|-------------------------------------------------------------|
B|-12---12---12---12---12----12---10---10---10---10---10---10--|
G|---11---11---11---11---11--------11---11---11---11---11------|
D|-----9----9----9---9-----9---------12---12---12---12---12----|
A|-------------------------------------------------------------|
E|-------------------------------------------------------------|

e|-------------------------------------------------------------|
B|-8---8---8---8---8---8--7---7---7---7---7---7----------------|
G|--9---9---9---9---9------8---8---8---8---8-------------------|
D|---10--10--10--10--10-----9---9---9---9---9------------------|
A|-------------------------------------------------------------|
E|-------------------------------------------------------------|
(i think the 9 in anthonys last part might be wrong but i tabed it on the spot so)

guest
You may want to rate the tab now too:
select rating
Wanna post a correction for this tab? Suggest correction