Oops, an error
Loading. Please wait.

Montauk tab

version 1
version 1

Interactive

by Bayside
2,708 views 1 this week
1 commentread comment
1 2 3 4 5
1 last vote to show rating
add to favorites
×
Save as Personal and add changes to this tab that will be seen only by you. Learn more ›
×
You can save this tab as Personal to edit and correct it or add notes. All changes will be seen only by you. Learn more »
launch autoscroll
font size
0
reset
how to read this tab
guitar tuner
edit
Autoscroll
slow
fast
+/-
esc
set tempo
stop
Bayside
Montauk
Tabbed by Felix


Intro

E------------------------------------------------------|
B------------------------------------------------------|
G---7-77-7-7777----------------------------------------|
D-999-99-999999---7-777-11-11-11-11--------------------|
A-999-99-999999-555-555-9--9--9--9---------------------|
E------------------------------------------------------|

Verse Chords are: G5 D5 A5 A5 A# B5 G Em F#

E-------------------------|
B-666666------------------|
G-777777------------------|
D-888888------------------|
A-------------------------|
E-------------------------|

Chorus Chords are: B5 Em A5 G5 F#

Bridge Guitar 1:

E--------------------------------------------------------------|
B--12----12----12----12----10----10----10----10----10----------|
G----11----11----11----11----11----11----11----11----11--------|
D------9-----9-----9-----9-----12----12----12----12----12------|
A--------------------------------------------------------------|
E--------------------------------------------------------------|

E--------------------------------------|
B-8---8---8---8---8----7--7---777777---|
G--9---9---9---9---9----9--9--999999---|
D---10--10--10--10--10---8--8-888888---|
A--------------------------------------|
E--------------------------------------|

Everything is pretty close.
Good Luck.

            
            
Suggest correction
Creating personal tab
Creating personal tab
You can edit any tab online and save it as your Personal.

You can edit, replace or remove any tab part or add personal notes – all changes will be seen only by you.

Personal tabs can be accessed anytime from any device, even offline.
Learn more »
Give kudos to tab author, rate the tab!
1 2 3 4 5
comments
print report bad tab
1 comment total.
0 reply
die_romantic 100 Oct 09, 2006 03:16 PM

this song is played in drop D! and the solo's missing apart from like one bit, which i play differently anyway. sorry.

guest
You may want to rate the tab now too:
select rating
Wanna post a correction for this tab? Suggest correction