Oops, an error
Loading. Please wait.

Montauk Acoustic tab

version 3
version 3

Interactive

by Bayside
29,430 views 6 this week
5 commentsread comments
1 2 3 4 5
x 14
add to favorites
×
Save as Personal and add changes to this tab that will be seen only by you. Learn more ›
×
You can save this tab as Personal to edit and correct it or add notes. All changes will be seen only by you. Learn more »
launch autoscroll
font size
0
reset
how to read this tab
guitar tuner
edit
Autoscroll
slow
fast
+/-
esc
set tempo
stop
Author
Difficulty
-------------------------------------------------------------------------------
                             SONG NAME - Band Name
-------------------------------------------------------------------------------
Quite frankly I waited forever for this tab, no one put one on so I just done it by ear.
Then I’m further insulted with the fact that they are horribly wrong.  I’m not saying
my tab is 100% right, but it’s a lot closer.  Also, if you want to play the original 
same tab in standard.  Got it?  Good listen up and find the strumming pattern yourself.
Tabbed by: jedicoty
Email:jedicoty@gmail.com

Tuning: Drop D 1/2 step flat
Intro:
Guitar 1:
eb|-0-------------------------------------------------------------------------|
Bb|-0-------------------------------------------------------------------------|
Gb|-7-x8----------14-12-11-12-------------------------------------------------|
Db|-7------12-----12-12-12-12-----(repeats)-----------------------------------|
Ab|--------12-(x4)12-12-12-12-------------------------------------------------|
Db|-------/12-----12-12-12-12-------------------------------------------------|
Intro: After 1 of above measures.  Play until verse
Guitar 2:
eb|---------------------------------------------------------------------------|
Bb|---------------------------------------------------------------------------|
Gb|-/7-----------------------------7-6---9-7-6-(x3)-7-6-----------------------|
Db|------------------------------------9----------------9---------------------|
Ab|---------------------------------------------------------------------------|
Db|---------------------------------------------------------------------------|
Verse:
eb|------------------------------------------0--------------------------------|
Bb|------------------------------------------0--------------------------------|
Gb|-7----7--9--9-9-11---4--------------------7-(x12)--------------------------|
Db|-5----7--7--7-8-9----2-0-4---(x2)---------7--------------------------------|
Ab|-5----5--7--7-8-9----2-0-4-------------------------------------------------|
Db|-5-------7--7-8-9----2-0-4-------------------------------------------------|
Chorus:
eb|---------------------------------------------------------------------------|
Bb|-3-------------------------3-----------------------------------------------|
Gb|-4--4--9--7-6-7-9-7-6-4----4--4--9--7-6-6-7-6-4-3--------------------------|
Db|-4--2--7--x-x-x-x-x-x-x----4--2--7--x-x-x-x-x-x-x-(x2)---------------------|
Ab|-2--2--7--5-4-5-7-5-4-2----2--2--7--5-4-4-5-4-2-1--------------------------|
Db|----2--7----------------------2--7-----------------------------------------|
Break: These chords you FINGERPICK… DON’T STRUM, Single note up the chord.
eb|---------------------------------------------------------------------------|
Bb|-12---10---8---7-----------------------------------------------------------|
Gb|-11---11---9---9-----------------------------------------------------------|
Db|-12---12---10--8-----------------------------------------------------------|
Ab|---------------------------------------------------------------------------|
Db|---------------------------------------------------------------------------|
Solo: not 100% but sounds fitting for what I know… you figure the rest.
eb|-------------------------------0-2-----3-----2-3-2-0-2---------------------|
Bb|-------2-3-2---------------2-3-----3-----3---------------------------------|
Gb|-4-2-4-------4-2-2-4-2-0-------------2-----2-------------------------------|
Db|-------------------------4-------------------------------------------------|
Ab|---------------------------------------------------------------------------|
Db|---------------------------------------------------------------------------|


| /  slide up
| \  slide down
| h  hammer-on
| p  pull-off
| ~  vibrato
| +  harmonic
| x  Mute note
===============================================================================
Suggest correction
Creating personal tab
Creating personal tab
You can edit any tab online and save it as your Personal.

You can edit, replace or remove any tab part or add personal notes – all changes will be seen only by you.

Personal tabs can be accessed anytime from any device, even offline.
Learn more »
comments
print report bad tab
5 comments total. Showing first comments.
0 reply
spartanfan10 22 Apr 17, 2007 06:29 PM

Really wish you'd finish the solo, but other than that, damn near perfect tab.

0 reply
heaven's_door 62 May 18, 2007 12:31 PM

some parts are close...some aren't

0 reply
xApollox 1,002 Sep 23, 2007 05:57 AM

WOW. if only you finished the solo, i'd probably shake your hand personally. I rated 5!

guest
You may want to rate the tab now too:
select rating
Wanna post a correction for this tab? Suggest correction