Oops, an error
Loading. Please wait.

Talking Of Michelangelo tab

version 1
version 1

Whole song

Interactive

by Bayside
1,117 views 6 this week
no commentswrite comment
1 2 3 4 5
3 more votes to show rating
add to favorites
×
Save as Personal and add changes to this tab that will be seen only by you. Learn more ›
×
You can save this tab as Personal to edit and correct it or add notes. All changes will be seen only by you. Learn more »
launch autoscroll
font size
0
reset
how to read this tab
guitar tuner
edit
Autoscroll
slow
fast
+/-
esc
set tempo
stop
Author
Difficulty
Alright, Check This out. about 95% of the song is correct and the rest is just close enough to being correct. 
Viel Spaß Lufthansa!!!

~= let it ring really quickly. 

Intro : Play 4 times.
e|------------------------------------------------------------------|
B|-----------------------------------------------------------------.|
G|-------3---------------5-----------------7-----7~-----7-----------|
D|-----3---3--3--------5---5--5--------7-----7-------7----7--------.|
A|-1-1--1---1------3-3--3----3-----5-5---5-----5---5---5----5-------|
E|------------------------------------------------------------------|

Start First Verse : Play 2 Times slightly palm mute it.
e|------------------------------------------------------------------------|
B|------------------------------------------------------------------------|
G|--------------------7-7-7-7-5-5-5-5--3-3-3-3-3-3-3-3-3--2-2-2-2-2-2-2-2-|
D|-3-3-3-3-3-3-3-3----7-7-7-7-5-5-5-5--3-3-3-3-3-3-3-3-3--2-2-2-2-2-2-2-2-|
A|-3-3-3-3-3-3-3-3-X2-5-5-5-5-3-3-3-3--1-1-1-1-1-1-1-1-1--0-0-0-0-0-0-0-0-|
E|-1-1-1-1-1-3-1-1--------------------------------------------------------|

Verse Continued
e|---------------------------------------------------|
B|---------------------------------------------------|
G|-7-7-7-7-7-7-7-7-------------------5-5-5-5-5-5-5-5-|
D|-7-7-7-7-7-7-7-7--5-5-5-5-5-5-5-5--5-5-5-5-5-5-5-5-|
A|-5-5-5-5-5-5-5-5--5-5-5-5-5-5-5-5--3-3-3-3-3-3-3-3-|
E|------------------3-3-3-3-3-3-3-3------------------|

Enter Chorus : Play twice, but second time has different ending
e|---------------------------------------------|e|--|ending 2|---------|
B|--------------------------------|ending 1|---|B|---------------------|
G|-----------3333-5555--77777777--3333-5555----|G|-55555555------------|
D|-33333333--3333-5555--77777777--3333-5555----|D|-55555555---3~~------|
A|-33333333--1111-3333--55555555--1111-3333----|A|-33333333---3~~------|
E|-11111111------------------------------------|E|------------1~~------|

Play intro twice
on the third time play this
e|---------------|
B|---------------|
G|------------5--|
D|----3-------3--|
A|-1-1--1/3-3----|
E|---------------|

Repeat Verse 2 twice
Play chorus twice with the different again like the first chorus

Begin Bridge, play once with first ending then once with second ending
(seriously i know this part is wrong, but i just needed to put something
i don't know it)
e|-----------------------|ending 1|---|e|-|ending 2-|
B|------------------------------------|B|-----------|
G|-------2-----------2---3-1-0--------|G|-----------|
D|-----0-----2-3---0-----------3-1-0--|D|----3-2----|
A|---2-----0-----0-------------------3|A|-----------|
E|------------------------------------|E|-----------|

Theres only so many.....let it ring
e|----------------------------|
B|----------5~--------------5~|
G|-3~--5~---5~--2~--3~--5~--5~|
D|-3~--5~---3~--2~--3~--5~--3~|
A|-1~--3~-------0~--1~--3~----|
E|----------------------------|

Now this time play it again but with more Joy and Feeling!!
e|-------------------------------|
B|--------5----------------------|
G|-3--5---5--2--3--55-5-555-555--|
D|-3--5---3--2--3--55-5-555-555--|
A|-1--3------0--1--33-3-333-333--|
E|-------------------------------|

Outro played twice with different endings.
e|--------------------------------|ending 1----|e|--|ending 2--|
B|---------------------------------------------|B|-------------|
G|-----------3333-5555--77777777--3333-5555----|G|-55555555----|
D|-33333333--3333-5555--77777777--3333-5555----|D|-55555555----|
A|-33333333--1111-3333--55555555--1111-3333----|A|-33333333----|
E|-11111111------------------------------------|E|-------------|


And I wonder whennnnn when i'll bow out....
e|---------------------------------------------|
B|---------------------------------------------|
G|-----------3333-5555--77777777--3333-5555----|
D|-33333333--3333-5555--77777777--3333-5555----|
A|-33333333--1111-3333--55555555--1111-3333----|
E|-11111111------------------------------------|

and its...wonderful.......its...wonderful....
e|--------------------------------------------------------------------|
B|--------------------------------------------------------------------|
G|-----------3333-5555--77777777--55-555-55-555-55-555-55555555-------|
D|-33333333--3333-5555--77777777--55-555-55-555-55-555-55555555---3~~-|
A|-33333333--1111-3333--55555555--33-333-33-333-33-333-33333333---3~~-|
E|-11111111-------------------------------------------------------1~~-|

wow. there you go.
that took me a whole hour and a half
if you have an questions and or would like to add or fix something
please..feel free to bother me with your problems or insults at
ryanilano@hotmail.com
this goes out too my brother ray, kat. alexis. 
Suggest correction
Creating personal tab
Creating personal tab
You can edit any tab online and save it as your Personal.

You can edit, replace or remove any tab part or add personal notes – all changes will be seen only by you.

Personal tabs can be accessed anytime from any device, even offline.
Learn more »
Give kudos to tab author, rate the tab!
1 2 3 4 5
comments
print report bad tab
guest
You may want to rate the tab now too:
select rating
Wanna post a correction for this tab? Suggest correction