Oops, an error
Loading. Please wait.

They Look Like Strong Hands tab

version 2
version 2

Whole song

Interactive

by Bayside
11,307 views 1 this week
4 commentsread comments
1 2 3 4 5
x 12
add to favorites
×
Save as Personal and add changes to this tab that will be seen only by you. Learn more ›
×
You can save this tab as Personal to edit and correct it or add notes. All changes will be seen only by you. Learn more »
launch autoscroll
font size
0
reset
how to read this tab
guitar tuner
edit
Autoscroll
slow
fast
+/-
esc
set tempo
stop
Author
Difficulty
----------------------------------------------------------------------------
                      THEY LOOK LIKE STRONG HANDS - Bayside
----------------------------------------------------------------------------
Tabbed by: Patrice Naud
Email: drnaud81@hotmail.com

Tuning: 1 whole step down ( DGCFAD )

intro:
D|------------------------------------------------------------------------|
A|------------------------------------------------------------------------|
F|------------8^8--9-8-6--------------------------------------------------|
C|------6---6------------9-7-6------------------6h7p6---6-----------------|
G|----7---7-----------------------7-9^9-7--9-7--------9---7---------------|
D|--9---------------------------9-----------------------------------------|

D|------------------------------------------------------------------------|
A|------------------------------------------------------------------------|
F|------------8^8--9-8-6--------------------------------------------------|
C|------6---6------------9-7-6--------------------------------------------|
G|----7---7-----------------------7-9^9-7--9-7--9^9--7h9p7----------------|
D|--9---------------------------9-----------------------------------------|

verse:
D|------------------------------------------------------------------------|
A|-----5--------5---------------------------------------------------------|
F|--6--4-----2--4---------------------------------------------------------|
C|--6--2--4--2--2---------------------------------------------------------|
G|--4-----4--0------------------------------------------------------------|
D|--------2---------------------------------------------------------------|

chorus:
D|------------------------------------------------------------------------|
A|-----------5------------------------------------------------------------|
F|--2--5--6--4--2--4------------------------------------------------------|
C|--2--5--6--2--2--4--2---------------------------------------------------|
G|--0--3--4-----0--2--2---------------------------------------------------|
D|--------------------0---------------------------------------------------|

bridge:
D|----------------------------------------------------|-------------------|
A|----------------------------------------------------|-------------------|
F|---------------------------------------------4h6p4--|-----------------4-|
C|-------6-6-6-------7-6-4---------6-6-6-------------6|--6---7-6-4----7-4-|
G|-4-4-4-------4-4-4-------7-4-4-4-------6-6-6--------|4---4-------7--7-2-|
D|----------------------------------------------------|---------------5---|

D|----------------------------|-------------------------------------------|
A|----------------------------|-------------------------------------------|
F|-----------9-8-4-6--4-6-4---|-------9-----------------------------------|
C|--2--6--2--9-8-4-6--4-6-4-2-|-6--9--9-----------------------------------|
G|--2--6--2--7-6-2-4--2-4-2-2-|-6--9--7-----------------------------------|
D|--0--4--0-----------------0-|-4--7--------------------------------------|
NOTE : play second part only on the first time


Listen to the song to know when to play each sections, listen to the rythm and you're set !

| ^  bend
| /  slide up
| \  slide down
| h  hammer-on
| p  pull-off
| ~  vibrato
| +  harmonic
| x  Mute note
============================================================================

            
            
Suggest correction
Creating personal tab
Creating personal tab
You can edit any tab online and save it as your Personal.

You can edit, replace or remove any tab part or add personal notes – all changes will be seen only by you.

Personal tabs can be accessed anytime from any device, even offline.
Learn more »
comments
print report bad tab
4 comments total. Showing first comments.
0 reply
Domisthesex 10 Jul 04, 2006 07:34 PM

great tab your supposed to play the intro diffrently but it works.

0 reply
tfk011 22 Oct 17, 2006 12:58 PM

actually thats the right way to play the intro, ive seen them live, good tab

0 reply
AppeaseOurPride 95 Oct 17, 2006 06:26 PM

nice tab. that's the correct intro I'm sure of it.

I wish someone would tab both guitar parts because the song sounds a little off in this tuning with just one guitar.

guest
You may want to rate the tab now too:
select rating
Wanna post a correction for this tab? Suggest correction