Oops, an error
Loading. Please wait.

They Looked Like Strong Hands bass

version 1
version 1

Whole song

by Bayside
811 views 1 this week
1 commentread comment
1 2 3 4 5
1 last vote to show rating
add to favorites
×
Save as Personal and add changes to this tab that will be seen only by you. Learn more ›
×
You can save this tab as Personal to edit and correct it or add notes. All changes will be seen only by you. Learn more »
launch autoscroll
font size
0
reset
guitar tuner
edit
Autoscroll
slow
fast
+/-
esc
set tempo
stop
Bayside
They looked like Stong Hands
"Bayside"
tabbed by fight off your demons

      INTRO
G------------------------------------------------------------|
D------------------------------------------------------------|
A---2-----5-----------2-5-------2----5--------2-5------------|
E------------------------------------------------------------|

Verse
G------------------------------------------------------------|
D------------------------------------------------------------|
A---2----5--------------------2-----5------------------------|
E--------------------2--5-------------------2--5-------------|


Chorus  (Play 2x)
G------------------------------------------------------------|
D------------------------------------------------------------|
A------------------------------------------------------------|
E5555555----7777777---9999999---4444444---5555555---7777777--|0(let ring)

Verse
G------------------------------------------------------------|
D------------------------------------------------------------|
A--2----5--------------------2-----5-------------------------|
E------------------2--5-----------------2--5-----------------|

Chorus (play 2x)
G-------------------------------------------------------------|
D-------------------------------------------------------------|
A-------------------------------------------------------------|
E5555555---7777777---9999999---4444444---5555555---7777777--0-|(let ring)

Guitar Solo (not to sure on this)
G------------------------------------------------------------|
D------------------------------------------------------------|
A------------------------------------------------------------|
E5555----7777----9999----4444---555----777--0----------------|

Bridge (Play 2x)
"Dont tell me...."
G------------------------------------------------------------|
D------------------------------------------------------------|
A------------54020-------------------------------------------|
E--0--4---0--------4540--------------------------------------|

Chorus (play 2x)
G-------------------------------------------------------------|
D-------------------------------------------------------------|
A-------------------------------------------------------------|
E5555555---7777777---9999999---4444444---5555555---7777777--0-|(let ring)

Pretty simple songs let me know if anything isnt right!

            
            
Suggest correction
Creating personal tab
Creating personal tab
You can edit any tab online and save it as your Personal.

You can edit, replace or remove any tab part or add personal notes – all changes will be seen only by you.

Personal tabs can be accessed anytime from any device, even offline.
Learn more »
Give kudos to tab author, rate the tab!
1 2 3 4 5
comments
print report bad tab
1 comment total.
0 reply
darkdream666 50 Jul 16, 2009 01:59 PM

horribly wrong...

guest
You may want to rate the tab now too:
select rating
Wanna post a correction for this tab? Suggest correction