Oops, an error
Loading. Please wait.

Theyre Not Horses Theyre Unicorns bass

version 1
version 1

Whole song

Interactive

by Bayside
2,163 views 1 this week
1 commentread comment
1 2 3 4 5
x 4
add to favorites
×
Save as Personal and add changes to this tab that will be seen only by you. Learn more ›
×
You can save this tab as Personal to edit and correct it or add notes. All changes will be seen only by you. Learn more »
launch autoscroll
font size
0
reset
guitar tuner
edit
Autoscroll
slow
fast
+/-
esc
set tempo
stop
Song:They're Not Horses, They're Unicorns
Artist: Bayside
Tabbed By :
e-mail:

Tuning:
x4
G|-----------------------------------------------------------------------------|
D|-----------------------------------------------------------------------------|
A|-----777-7---7---7-----------------------------------------------------------|
D|---7-------7---5-------------------------------------------------------------|


x1
G|-----------------------------------------------------------------------------|
D|-----------------------------------------------------------------------------|
A|-----------------------------------------------------------------------------|
D|------7~---------------------------------------------------------------------|


x2
G|-----------------------------------------------------------------------------|
D|-----------------------------------------------------------------------------|
A|-----777-7---7---7-----------------------------------------------------------|
D|---7-------7---5-------------------------------------------------------------|


x1
G|-----------------------------------------------------------------------------|
D|-----------------------------------------------------------------------------|
A|-----------------------------------------------------------------------------|
D|---7~---------------------7~-------------------------------------------------|

x1
G|-----------------------------------------------------------------------------|
D|-----------------------------------------------------------------------------|
A|-----------------------------------------------------------------------------|
D|-------55---733---511111111---55---733---511111111-11------------------------|

x2
G|-----------------------------------------------------------------------------|
D|-----------------------------------------------------------------------------|
A|-----------------------------------------------------------------------------|
D|-------7777777733333333555555555555555555------------------------------------|

G|-----------------------------------------------------------------------------|
D|-----------------------------------------------------------------------------|
A|-----------------------------------------------------------------------------|
D|-------7777777733333333888888888888888888------------------------------------|


x1
G|-----------------------------------------------------------------------------|
D|-----------------------------------------------------------------------------|
A|-----------------------------------------------------------------------------|
D|---------7~6~5~4~3~----7654--------------------------------------------------|


x4
G|-----------------------------------------------------------------------------|
D|-----------------------------------------------------------------------------|
A|-----777-7---7---7-----------------------------------------------------------|
D|---7-------7---5-------------------------------------------------------------|

x1
G|-----------------------------------------------------------------------------|
D|-----------------------------------------------------------------------------|
A|-----------------------------------------------------------------------------|
D|------7~---------------------------------------------------------------------|


x2
G|-----------------------------------------------------------------------------|
D|-----------------------------------------------------------------------------|
A|-----777-7---7---7-----------------------------------------------------------|
D|---7-------7---5-------------------------------------------------------------|


x1
G|-----------------------------------------------------------------------------|
D|-----------------------------------------------------------------------------|
A|-----------------------------------------------------------------------------|
D|---7~---------------------7~-------------------------------------------------|


x2
G|-----------------------------------------------------------------------------|
D|-----------------------------------------------------------------------------|
A|-----777-7---7---7-----------------------------------------------------------|
D|---7-------7---5-------------------------------------------------------------|


x1
G|-----------------------------------------------------------------------------|
D|-----------------------------------------------------------------------------|
A|-----------------------------------------------------------------------------|
D|-------55---733---511111111---55-7h8p7--733-5h6p5--511111111-11--------------|


x2
G|-----------------------------------------------------------------------------|
D|-----------------------------------------------------------------------------|
A|-----------------------------------------------------------------------------|
D|-------7777777733333333555555555555555555------------------------------------|

G|-----------------------------------------------------------------------------|
D|-----------------------------------------------------------------------------|
A|-----------------------------------------------------------------------------|
D|-------7777777733333333888888888888888888------------------------------------|


x1
G|-----------------------------------------------------------------------------|
D|-----------------------------------------------------------------------------|
A|-----------------------------------------------------------------------------|
D|---------7~6~5~4~3~----76543-------------------------------------------------|


x1
G|-----------------------------------------------------------------------------|
D|-----------------------------------------------------------------------------|
A|---77--7--------------55---------------77--7------------55--7-33-------------|
D|--7--7---7--5h7p5--55----5--11111111--7--7--7--5h7p5--55--5------------------|

x2
G|-----------------------------------------------------------------------------|
D|-----------------------------------------------------------------------------|
A|-----------------------------------------------------------------------------|
D|--5-5-5-5-3-3-3-3-1-1-1-1-1-1-1-1---2nd time--1~-1---------------------------|


x2
G|-----------------------------------------------------------------------------|
D|-----------------------------------------------------------------------------|
A|-----------------------------------------------------------------------------|
D|-------7777777733333333555555555555555555------------------------------------|

G|-----------------------------------------------------------------------------|
D|-----------------------------------------------------------------------------|
A|-----------------------------------------------------------------------------|
D|-------7777777733333333888888888888888888------------------------------------|


x1
G|-----------------------------------------------------------------------------|
D|-----------------------------------------------------------------------------|
A|-----------------------------------------------------------------------------|
D|---------7~6~5~4~3~----7-----------------------------------------------------|

| /  slide up
| \  slide down
| h  hammer-on
| p  pull-off
| ~  vibrato
| +  harmonic
| x  Mute note
===============================================================================

            
            
Suggest correction
Creating personal tab
Creating personal tab
You can edit any tab online and save it as your Personal.

You can edit, replace or remove any tab part or add personal notes – all changes will be seen only by you.

Personal tabs can be accessed anytime from any device, even offline.
Learn more »
comments
print report bad tab
1 comment total.
0 reply
Cerberus4023 10 Jan 18, 2010 12:23 PM

Wrong. 1 Star

guest
You may want to rate the tab now too:
select rating
Wanna post a correction for this tab? Suggest correction