Oops, an error
Loading. Please wait.

Theyre Not Horses Theyre Unicorns bass

version 3
version 3

Whole song

Interactive

by Bayside
139 views 1 this week
no commentswrite comment
1 2 3 4 5
3 more votes to show rating
add to favorites
×
Save as Personal and add changes to this tab that will be seen only by you. Learn more ›
×
You can save this tab as Personal to edit and correct it or add notes. All changes will be seen only by you. Learn more »
launch autoscroll
font size
0
reset
guitar tuner
edit
Autoscroll
slow
fast
+/-
esc
set tempo
stop
Intro:

G|---------------------------|
D|---------------------------|
A|---------------------------|
D|-0-------------0------7----|

G|---------------------------|
D|---------------------------|
A|---------------------------|
D|-0-------------0------7----|

G|---------------------------|
D|---------------------------|
A|---------------------------|
D|-8-------------8------7----|

G|---------------------------|
D|---------------------------|
A|---------------------------|
D|-0-------------0------7----|

Verse:

"You're pulling out your teeth..."
G|-----|
D|-----|
A|-----|
D|-8~--|

G|---------------------------|
D|---------------------------|
A|---------------------------|
D|-0-------------0------7----| X2

"You've got blood running down your chin..."
G|--------|
D|--------|
A|--------|
D|-8~-8~--|

"But you suffered peacefully..."
G|---------------------------|
D|---------------------------|
A|---------------------------|
D|-0-------------0------7----| X2

Pre Chorus:

"She was a termite, eating away at my roots..."
G|------------------------|
D|------------------------|
A|------------------------|
D|-8-8------8-5-5-----5---|

G|------------------|
D|------------------|
A|------------------|
D|-0-0-0-0-0-0-0-0--|X2

"I was just a lost soul who needed a home..."
G|------------------------|
D|------------------------|
A|------------------------|
D|-8-8------8-5-5-----5---|


G|----------------------|
D|-0-0-0-0-0-0-0---0-0--|
A|-0-0-0-0-0-0-0---0-0--|
D|-0-0-0-0-0-0-0---0-0--|X2

Chorus:

"And I Can't can't wait, till you see see see..."
G|------------------------------------------------------------|
D|------------------------------------------------------------|
A|------------------------------------------------------------|
D|-12x8-----55555555-88888888888888888------------------------|

"What death and disgust have done to me"
G|------------------------------------------------|
D|------------------------------------------------|
A|------------------------------------------------|
D|-12x8-----55555555-11x16------------------------| Repeat Full Chorus X2

End chorus:

"How all the choices you made..."
G|-------------------------------------|
D|-------------------------------------|
A|-------------------------------------|
D|-12~--11~--10~--9~---8~---8-7-5-3-0--|
                            W W N V M
                            I E E E E
                            S   - R T
                            H

*Last Note (0) of end chorus doubles as first chord of main riff/verse, as far as timing*

G|---------------------------|
D|---------------------------|
A|---------------------------|
D|-0-------------0------7----| X2

Verse:

"As Angry As I Sound, Thats Just The Way I Cover Up..."
G|-----|
D|-----|
A|-----|
D|-8~--|

G|---------------------------|
D|---------------------------|
A|---------------------------|
D|-0-------------0------7----| X2

"Years and years, a slave to broken hearts, and sex appeal"
G|--------|
D|--------|
A|--------|
D|-8~-8~--|

G|---------------------------|
D|---------------------------|
A|---------------------------|
D|-0-------------0------7----| X2


Pre Chorus:

"She was a termite, eating away at my roots..."
G|------------------------|
D|------------------------|
A|------------------------|
D|-8-8------8-5-5-----5---|

G|------------------|
D|------------------|
A|------------------|
D|-0-0-0-0-0-0-0-0--|X2

"I was just a lost soul who needed a home..."
G|------------------------|
D|------------------------|
A|------------------------|
D|-8-8------8-5-5-----5---|


G|----------------------|
D|-0-0-0-0-0-0-0---0-0--|
A|-0-0-0-0-0-0-0---0-0--|
D|-0-0-0-0-0-0-0---0-0--|X2

Chorus:

"And I Can't can't wait, till you see see see..."
G|------------------------------------------------------------|
D|------------------------------------------------------------|
A|------------------------------------------------------------|
D|-12x8-----55555555-88888888888888888------------------------|

"What death and disgust have done to me"
G|------------------------------------------------|
D|------------------------------------------------|
A|------------------------------------------------|
D|-12x8-----55555555-11x16------------------------| Repeat Full Chorus X2

End chorus:

"How all the choices you made..."
G|-------------------------------------|
D|-------------------------------------|
A|-------------------------------------|
D|-12~--11~--10~--9~---8~---8-7-5-3-0--|
                            W W N V M
                            I E E E E
                            S   - R T
                            H

Transition into Bridge:
G|-------------------------------------|
D|-------------------------------------|
A|-------------------------------------|
D|-(No Base)---------------------------|



Fast Bridge:

*Still working on it...*

Bridge Fill
G|------------------------------------|
D|------------------------------------|
A|------------------------------------|
D|--(Soon to Come)--------------------|

Slower Bridge:

"She was a termite, eating away at my roots..."
G|--------------------------------------|
D|--------------------------------------|
A|--------------------------------------|
D|-8-8-8-8-7-7-7-7-0-0-0-0--------------|

G|--------------------------------------|
D|--------------------------------------|
A|--------------------------------------|
D|-8-8-8-8-7-7-7-7-0-0-0-0-0~----0~-----|

Chorus:

"And I Can't can't wait, till you see see see..."
G|------------------------------------------------------------|
D|------------------------------------------------------------|
A|------------------------------------------------------------|
D|-12x8-----55555555-88888888888888888------------------------|

"What death and disgust have done to me"
G|------------------------------------------------|
D|------------------------------------------------|
A|------------------------------------------------|
D|-12x8-----55555555-11x16------------------------| Repeat Full Chorus X2


Outro:

"How all the choices you made..."
G|-------------------------------------|
D|-------------------------------------|
A|-------------------------------------|
D|-12~--11~--10~--9~---8~---8----------|
"I Wish we never met."

            
            
Suggest correction
Creating personal tab
Creating personal tab
You can edit any tab online and save it as your Personal.

You can edit, replace or remove any tab part or add personal notes – all changes will be seen only by you.

Personal tabs can be accessed anytime from any device, even offline.
Learn more »
Give kudos to tab author, rate the tab!
1 2 3 4 5
comments
print report bad tab
guest
Wanna post a correction for this tab? Suggest correction