Oops, an error
Loading. Please wait.

Walking Wounded solo tab

version 1
version 1

Solo

Whole song

by Bayside
5,020 views 6 this week
7 commentsread comments
1 2 3 4 5
x 6
add to favorites
×
Save as Personal and add changes to this tab that will be seen only by you. Learn more ›
×
You can save this tab as Personal to edit and correct it or add notes. All changes will be seen only by you. Learn more »
launch autoscroll
font size
0
reset
how to read this tab
guitar tuner
edit
Autoscroll
slow
fast
+/-
esc
set tempo
stop
Well here's the solo everyone has been waiting for, I haven't had the time to figure out 
whole song, but I figured I'd go ahead and do the solo since some of you may be dieing 
anticipation.

[interlude]
[guitar one - backup]
e|------------------------------------------------------------------------|
b|------------------------------------------------------------------------|
g|------------------------------------------------------------------------|
d|-3-X-3--3-3-X-6-X-6--6-6-X-8-X-8--8-8-X\3-X-3--3-3-X-6-X-6--6-6-X-8-X-8-|
a|-3-X-3--3-3-X-6-X-6--6-6-X-8-X-8--8-8-X\3-X-3--3-3-X-6-X-6--6-6-X-8-X-8-|
D|-3-X-3--3-3-X-6-X-6--6-6-X-8-X-8--8-8-X\3-X-3--3-3-X-6-X-6--6-6-X-8-X-8-|

e|---------------------|
b|---------------------|
g|---------------------|
d|-8-8\10-X-10-X-10-10-|
a|-8-8\10-X-10-X-10-10-|
D|-8-8\10-X-10-X-10-10-|

[second guitar - lead]
     ^ dip wah
e|-----|
b|-----|
g|-----|
d|-\10-|
a|-----|
D|-----|


[solo time]
[guitar one - backup]
PM|.........................................................|
e|-----------------------------------------------------------|
b|-----------------------------------------------------------|
g|-----------------------------------------------------------|
d|-3-3-3-3-3-3-3-3-3-3-3-3-3-3-3-3-6-6-6-6-6-6-6-6-6-6-6-6-6-|
a|-3-3-3-3-3-3-3-3-3-3-3-3-3-3-3-3-6-6-6-6-6-6-6-6-6-6-6-6-6-|
D|-3-3-3-3-3-3-3-3-3-3-3-3-3-3-3-3-6-6-6-6-6-6-6-6-6-6-6-6-6-|

     PM|...............................|   |...............................|
e|--------------------------------------------------------------------------|
b|--------------------------------------------------------------------------|
g|-8--6-6-6-6-6-6-6-6-6-6-6-6-6-6-6-6-6--3--5-5-5-5-5-5-5-5-8-8-8-8-8-8-8-8-|
d|-8--6-6-6-6-6-6-6-6-6-6-6-6-6-6-6-6-6--3--5-5-5-5-5-5-5-5-8-8-8-8-8-8-8-8-|
a|-6--4-4-4-4-4-4-4-4-4-4-4-4-4-4-4-4-4--1--3-3-3-3-3-3-3-3-6-6-6-6-6-6-6-6-|
D|--------------------------------------------------------------------------|[x2]

{I'm gonna try to break it up the best I can, the ^ tells you where to dip the wah pedal]

[second guitar - lead]
e|---------8----9-8-12-13-11----------------|
b|-----9-8---11-------------14-13-11--------|
g|---10-----------------------------13-12\8-|
d|-10---------------------------------------|
a|------------------------------------------|
D|------------------------------------------|

                                ^
e|--------------------------------------------------------|
b|----8-9-8----11-8-9-8-----------8--8-8-9-8-9-11-9-11\13-|
g|---8-----8--8----8---8-10-8-8h10-10---------------------|
d|-10-------10--------------------------------------------|
a|--------------------------------------------------------|
D|--------------------------------------------------------|

    ^            ^            ^                   ^
e|----13-----------13-----------13-------------------|
b|------13-16p13-----13-16p13-----13-16p13h16p13-16b-|
g|-15b----------15b----------15b---------------------|
d|---------------------------------------------------|
a|---------------------------------------------------|
D|---------------------------------------------------|

{let the tabbing begin! OK you basically dip on each tapped note}
   T^     T^     T^     T^     T^     T^     T^     T^
e|---------------------------------------------------------|
b|-13-9p6-11-9p6-13-9p6-14-9p6-13-9p6-11-9p6-13-9p6-11-9p6-|
g|---------------------------------------------------------|
d|---------------------------------------------------------|
a|---------------------------------------------------------|
D|---------------------------------------------------------|

   T^     T^     T^     T^     T^     T^     T^     T^
e|---------------------------------------------------------|
b|---------------------------------------------------------|
g|-13-8p5-12-8p5-13-8p5-15-8p5-13-8p5-12-8p5-13-8p5-12-8p5-|
d|---------------------------------------------------------|
a|---------------------------------------------------------|
D|---------------------------------------------------------|

   T^                      T^
e|-------------------------------------------------|
b|-------------------------------------------------|
g|-13-12p10p9h10p9h10p9h10-13-12p10p9h10p9h10p9h10-|
d|-------------------------------------------------|
a|-------------------------------------------------|
D|-------------------------------------------------|

   T^                  T^
e|-----------------------------------------|
b|-13-11p9p8h9p8h9p8h9-13-11p9p8h9p8h9p8h9-|
g|-----------------------------------------|
d|-----------------------------------------|
a|-----------------------------------------|
D|-----------------------------------------|

     ^  ^  ^  ^  ^  ^  ^  ^  ^           ^                 
e|-----------------------------15h16p12h13-----------------------|
b|-8/9-11-13-11-13-14-13-16-13-----------------(8)---------------|
g|---------------------------------------------------------------|
d|---------------------------------------------------------------|
a|---------------------------------------------------------------|
D|---------------------------------------------------------------|

[Outro solo]

e|--------------------------------------------------------------|
b|---------------------------10--10-12-13-12-10-8-------------8-|
g|-\9-----9---\9-----9--9-12---------------------9--9h10p9-9\7--|
d|---10-12------10-12-------------------------------------------|
a|--------------------------------------------------------------|
D|--------------------------------------------------------------|

                          pinch harmonic *      *      *      *
e|-----------------------------------------------------------------------|
b|--\10-10-12-13-12-10---------------------------------------------------|
g|-9------------------9--9h10p9\7-5---5--7br5---7br5---5br5---5br5---5---|
d|----------------------------------7---------7------7------7------7---7-|
a|-----------------------------------------------------------------------|
D|-----------------------------------------------------------------------|

   *
e|--------|
b|--------|
g|-7br5---|
d|------7-|
a|--------|
D|--------|


Well that's the best I can do for now, if you have any questions/comments
please email at NNoodleNose@gmail.com

enjoi.

            
            
Suggest correction
Creating personal tab
Creating personal tab
You can edit any tab online and save it as your Personal.

You can edit, replace or remove any tab part or add personal notes – all changes will be seen only by you.

Personal tabs can be accessed anytime from any device, even offline.
Learn more »
comments
print report bad tab
7 comments total. Showing first comments.
0 reply
shugo449 530 Mar 08, 2007 02:32 AM

amazing thank you so much niw my band can play this with the solo 5*

0 reply
AndrewAdams 146 Mar 08, 2007 08:36 PM

Bayside plays a whole step down.

0 reply
spaulding91 30 Mar 09, 2007 03:06 PM

the tab is a whole step down, why does this only have a four star rating???

guest
You may want to rate the tab now too:
select rating
Wanna post a correction for this tab? Suggest correction