Oops, an error
Loading. Please wait.

Walking Wounded tab

version 1
version 1

Whole song

by Bayside
4,928 views 3 this week
11 commentsread comments
1 2 3 4 5
x 9
add to favorites
×
Save as Personal and add changes to this tab that will be seen only by you. Learn more ›
×
You can save this tab as Personal to edit and correct it or add notes. All changes will be seen only by you. Learn more »
launch autoscroll
font size
0
reset
how to read this tab
guitar tuner
edit
Autoscroll
slow
fast
+/-
esc
set tempo
stop
Since people out there have no motivation to learn any of this album (excluding Landing 
First, which is already here) I decided to learn this for myself. Considering Bayside is 
more and more complex, I did the best i could. take this and add your own changes, and have fun

Bayside - The Walking Wounded. (CAPO the first fret)

intro
e|-----------------------------|--------------------------------|
B|-----------------------------|--------------------------------|
G|-9--------------9------------|--------------------------------|
D|-9--------------9------------|----44-55-4~~----11-22-44~~-----|
A|-7-------0-2-5--7------0-2-5-|-33-----------22----------------|
E|----0-0------------0-0-------|--------------------------------|

first verse (the part with the accordian, others)
e|------------------------------------------------------|
B|------------------------------------------------------|
G|------------------------------------------------------|
D|----------------------9-10----------9-----------------|
A|-7---------7----10-12---------10---------9--(12)------|
E|------7-----------------------------------------------|

First verse (when guitars come in) (I'm not putting in strumming, so find out the 
yourself)
e|------------------------|
B|------------------------|
G|------------------------|
D|--2----5----10---9------|
A|--2----5----10---9------|
E|--0----3----8----7------|

Chorus (Relatively confusing)
e|------------------------|----------------------------------|
B|------------------------|----------------------------------|
G|------------------------|------------9---------------------|
D|--2----5----10---9------|--10---9----9----7----9-----------|
A|--2----5----10---9------|--10---9----7----7----9-----------|
E|--0----3----8----7------|--8----7---------5----7-----------|

Here are the lyrics to the chorus, along with an * everytime the note changes, just to 
you out.

*                  *
   Scientists they, couldn't fix me I'm so
*                        *
Tired, of getting out of bed
    *                             *            *
but who would want to die as a cowardly little child
         *                              *
When our time is up we'll be ashamed or proud

Second verse (basically same as 1st w/ accordian but as power cords and p.m.)
ALL PALM MUTES
e|--------------------------------------------|
B|-----------------------12-13--------12------|
G|-9---------9----12--14-11-12--12----11--10--|
D|-9----9----9----12--14-9--10--12----9---10--|
A|-7----9----7----10--12--------10--------9---|
E|------7-------------------------------------|

Insert chorus here

bridge (let's take this train...)
e|------------------------|
B|------------------------|
G|------------------------|
D|--2--5--10-9----10---9--|
A|--2--5--10-9----10---9--|
E|--0--3--8--7----8---7---|

Insert solo (sold seperately) here

sing to yourself for a little

Now do a chorus, A WHOLE STEP UP. I'm not gonna bother tabbing that, just add 2 to each number.

for the crappy solo, i believe it's something like this.
e|------------------------------------------------------------------|
B|--------------------------------------9-10-9----------------------|
G|------------------------------9-11-11--------11-9-----------------|
D|-11-7-9-9/11---11-7-9-9/11-11---------------------11-12-11-9-9/11-|
A|------------------------------------------------------------------|
E|------------------------------------------------------------------|

e|---------------------------------------------------------------|
B|------------9-10-9---------------------------------------------|
G|-9-11-11-11--------11-9----------9-11--------------------------|
D|------------------------11-11-11--------9-11-9-7---9-11-9-7----|
A|-------------------------------------------------9----------9--|
E|---------------------------------------------------------------|

Have fun - Nate

            
            
Suggest correction
Creating personal tab
Creating personal tab
You can edit any tab online and save it as your Personal.

You can edit, replace or remove any tab part or add personal notes – all changes will be seen only by you.

Personal tabs can be accessed anytime from any device, even offline.
Learn more »
comments
print report bad tab
11 comments total. Showing first comments.
0 reply
shugo449 530 Feb 24, 2007 09:07 AM

good but i wish it had the solo. Thank you so much, ive been waiting so long for this and duality! 5*

0 reply
drunkndrumin 125 Feb 24, 2007 09:17 AM

was the capo necessary? good tab though

0 reply
shugo449 530 Feb 24, 2007 12:28 PM

theres octaves in the first verse and choruses

guest
Wanna post a correction for this tab? Suggest correction