Oops, an error
Loading. Please wait.

Winter tab

version 5
version 5

Whole song

by Bayside
411 views 1 this week
no commentswrite comment
1 2 3 4 5
3 more votes to show rating
add to favorites
×
Save as Personal and add changes to this tab that will be seen only by you. Learn more ›
×
You can save this tab as Personal to edit and correct it or add notes. All changes will be seen only by you. Learn more »
launch autoscroll
font size
0
reset
how to read this tab
guitar tuner
edit
Autoscroll
slow
fast
+/-
esc
set tempo
stop
Difficulty
intermediate
Bayside, Winter. The right way, though others were close. 

Standard Tunning

Intro
e|--------------------------------------------------------|
B|--454---7~--454---7/9-7~--454----7----------454---------|
G|-----64--------64-------------64----4-4/6~-----4--------|
D|------------------------------------------------4-------|
A|-------------------------------------------------4-2----|
E|--------------------------------------------------------|

Chords

    B5   E    G#   F#   Em
e|--x----0----x----x----0---------------------------------|
B|--0----0----0----0----0---------------------------------|
G|--4----1----0----3----0---------------------------------|
D|--4----2----6----4----2---------------------------------|
A|--2----2----6----4----2---------------------------------|
E|--0----0----4----2----0---------------------------------|


B5
  When Winter falls 
E                    G#m
  Next year, I'll be holding on
     F#
  To anything nailed down
B5                      E                        G#m
  As for being patient, with fate and all, it's getting old. 
         F#
  And my mind is slowly changing

      G#m
  I'm calling all my oldest friends,
          F#
  Saying "sorry for this mess we're in,"
          E        Em
  And I'm waiting, waiting
          G#m
  For the Sun to come and melt this snow,
        F#                                E        Em
  wash away the pain, and give me back control, control.

     B5
  An angel got his wings, 
          E                 F#                G#m
  And we'll hold our heads up knowing that he's fine.
                      E                F#              B5
  We'd all be lucky to have a love like that in a lifetime.

B5
  Should we still set his plate?
E
  Should we still save his chair?
               G#m
  Should we still buy him gifts?
               F#
  And if we don't, did we not care?

                G#m
  It makes you think about the life you've led,
  F#
  Shit you've done, things you've said.
           E          Em
  And it's grounding, grounding.
             G#m
  I've been feeling three feet tall this month,

   F#
  hardly indestructible.
          E                    Em
  But the snow melts, and the rhythm still goes on.

     B5
  An angel got his wings, 
            E                F#                G#m
  And we'll hold our heads up knowing that he's fine.
                    E               F#                  
  We'd all be lucky to have a love like that in a lifetime.

  B5
  Friends stay side by side,
     E                       F#           G#m
  In life and death you've always stole my heart,
                        E                F#              E
  You'll always mean so much to me, it's hard to believe this

                        B5
  These nights in vans,
E                       B5
  These nights in bars,
E              F#               G#m    E     F#     B
  Don't mean a thing with empty hearts, with empty hearts.

                    2 Times                            second time
|-------------------------------------------------|------------------| 
    B5                                    E   F#    F# 
e|----------------------------------------0---2---|-2--2-2-2-2-2-2-2-|
B|*---------------------------------------0---2--*|-2--2-2-2-2-2-2-2-|
G|----------------------------------------1---3---|-3--3-3-3-3-3-3-3-|
D|----------------------------------------2---4---|-4--4-4-4-4-4-4-4-|
A|*----1213-(13)-(13)---121213-(13)(13)---2---4--*|-4--4-4-4-4-4-4-4-|
E|----------------------------------------0---2---|-2--2-2-2-2-2-2-2-|
                                            (palm mute)* * * * * * *
B5
  An angel got his wings, 
            E                F#                G#m
  And we'll hold our heads up knowing that he's fine.
                      E               F#               
  We'd all be lucky to have a love like that in a lifetime.

  B5
  Friends stay side by side,
     E                       F#           G#m
  In life and death you've always stole my heart,
                        E                F#              
  You'll always mean so much to me, it's hard to believe 
     E                F#
  So much to me, it's hard to believe
     E                F#                 B5
  So much to me, it's hard to believe this.

    B5                              
   -x--x--x-----
   --0--0--0----
   ---4--4--4---  Fade out by playing chord high to low 3 times
   ----4--4--4--
   -2-----------
   -------------

            
            
Suggest correction
Creating personal tab
Creating personal tab
You can edit any tab online and save it as your Personal.

You can edit, replace or remove any tab part or add personal notes – all changes will be seen only by you.

Personal tabs can be accessed anytime from any device, even offline.
Learn more »
Give kudos to tab author, rate the tab!
1 2 3 4 5
comments
print report bad tab
guest
Wanna post a correction for this tab? Suggest correction