Oops, an error
Loading. Please wait.

Dis-Moi Tab

37,848 views 24 this week
2 commentsread comments
1 2 3 4 5
excellent!
x 7
add to favorites
launch autoscroll
font size
0
reset
how to read this tab
guitar tuner
Autoscroll
slow
fast
+/-
esc
set tempo
stop
Help us to improve Ultimate-Guitar.com Take our survey!
×
Contributor
Difficulty
novice
Intro

-9--9----9--9----10-0---9--9--9--|
-10-10---9--9----10-0---9--9--9--|
-11-11---10-10---11-11--10-10-10-|
-11-11---11-11---12-12--11-11-11-|
-9--9----11-11---12-12--11-11-11-|
-9--9----9--9----10-0---9--9--9--|       (x4)

-7---10-9--|
-7---10-9--|
-8---11-10-|
-9---12-11-|
-9---12-11-|
-7---10-9--|

Chorus

-9--9----9--9----10-0---9--9--9--|
-10-10---9--9----10-0---9--9--9--|
-11-11---10-10---11-11--10-10-10-|
-11-11---11-11---12-12--11-11-11-|
-9--9----11-11---12-12--11-11-11-|
-9--9----9--9----10-0---9--9--9--|

-9--9----5-5---10-0---9--9--9--|
-10-10---5-5---10-0---9--9--9--|
-11-11---6-6---11-11--10-10-10-|
-11-11---7-7---12-12--11-11-11-|
-9--9----7-7---12-12--11-11-11-|
-9--9----5-5---10-0---9--9--9--|

-9--9----9--9----10-0---9--9--9-----5---9--|
-10-10---9--9----10-0---9--9--9-----5---9--|
-11-11---10-10---11-11--10-10-10----6---10-|
-11-11---11-11---12-12--11-11-11----7---11-|
-9--9----11-11---12-12--11-11-11----7---11-|
-9--9----9--9----10-0---9--9--9-----5---9--|

Couplet

( Basse )
and(during the end of the basse) :

-5-5-5-5-5-5-                 ----9----9----7----5-5-5-5-         -7---10-9--|
-7-7-7-7-7-7-                 ----10---9----9----7-7-7-7-         -7---10-9--|
-7-7-7-7-7-7- And then        ----11---10---9----7-7-7-7-         -8---11-10-|
-7-7-7-7-7-7-                 ----11---11---9----7-7-7-7-         -9---12-11-|
-5-5-5-5-5-5-                 ----9----11---7----5-5-5-5-         -9---12-11-|
-5-5-5-5-5-5-                 ----9----9----7----5-5-5-5-    x3   -7---10-9--|


Chorus


-9--9----9--9----10-0---9--9--9--|
-10-10---9--9----10-0---9--9--9--|
-11-11---10-10---11-11--10-10-10-|
-11-11---11-11---12-12--11-11-11-|
-9--9----11-11---12-12--11-11-11-|
-9--9----9--9----10-0---9--9--9--|

-9--9----5-5---10-0---9--9--9--|
-10-10---5-5---10-0---9--9--9--|
-11-11---6-6---11-11--10-10-10-|
-11-11---7-7---12-12--11-11-11-|
-9--9----7-7---12-12--11-11-11-|
-9--9----5-5---10-0---9--9--9--|

-9--9----9--9----10-0---9--9--9-----5---9--|
-10-10---9--9----10-0---9--9--9-----5---9--|
-11-11---10-10---11-11--10-10-10----6---10-|
-11-11---11-11---12-12--11-11-11----7---11-|
-9--9----11-11---12-12--11-11-11----7---11-|
-9--9----9--9----10-0---9--9--9-----5---9--|

Solo

-Guitare 1 : (accompagnement)

-9--9----9--9----10-0---9--9--9--|
-10-10---9--9----10-0---9--9--9--|
-11-11---10-10---11-11--10-10-10-|
-11-11---11-11---12-12--11-11-11-|     x8
-9--9----11-11---12-12--11-11-11-|
-9--9----9--9----10-0---9--9--9--|

-Guitare 2 :

--------------------------------------------------------|
-12b14-12--10-12--10-10-12----12b14-12--10-12-10--------|
-------------------------------------------------11-11--|
--------------------------------------------------------|
--------------------------------------------------------|
--------------------------------------------------------|

--------------------------------------------------------|
-12b14-12--10-12--10-10-12----12b14-12--10-12-10--------|
-------------------------------------------------11-11--|
--------------------------------------------------------|
--------------------------------------------------------|
--------------------------------------------------------|

--------------------------------------------------------|
----10-----10---12b13b12--10--12b13b12--10---12--10-----|
-11-----11----------------------------------------------|
--------------------------------------------------------|
--------------------------------------------------------|
--------------------------------------------------------|

--------------------------------------|
----10-----10---12b13b12--10----------|
-11-----11-------------------11-11----|
--------------------------------------|
--------------------------------------|
--------------------------------------|

--------------------------------------------------------|
-12b14-12--10-12--10-10-12----12b14-12--10-12-10--------|
-------------------------------------------------11-11--|
--------------------------------------------------------|
--------------------------------------------------------|
--------------------------------------------------------|

( Basse ) 2x , then :

-5-5-5-5-5-5-                 ----9----9----7----5-5-5-5----7---10-9--|
-7-7-7-7-7-7-                 ----10---9----9----7-7-7-7----7---10-9--|
-7-7-7-7-7-7- And then        ----11---10---9----7-7-7-7----8---11-10-|
-7-7-7-7-7-7-                 ----11---11---9----7-7-7-7----9---12-11-|
-5-5-5-5-5-5-                 ----9----11---7----5-5-5-5----9---12-11-|
-5-5-5-5-5-5-                 ----9----9----7----5-5-5-5----7---10-9--|

Chorus


-9--9----9--9----10-0---9--9--9--|
-10-10---9--9----10-0---9--9--9--|
-11-11---10-10---11-11--10-10-10-|
-11-11---11-11---12-12--11-11-11-|
-9--9----11-11---12-12--11-11-11-|
-9--9----9--9----10-0---9--9--9--|
                                               X3
-9--9----5-5---10-0---9--9--9--|
-10-10---5-5---10-0---9--9--9--|
-11-11---6-6---11-11--10-10-10-|
-11-11---7-7---12-12--11-11-11-|
-9--9----7-7---12-12--11-11-11-|
-9--9----5-5---10-0---9--9--9--|

Outro:

-9--9----9--9----10-0---9--9--9-----5----9------X--|
-10-10---9--9----10-0---9--9--9-----5----9------X--|
-11-11---10-10---11-11--10-10-10----6----10-----X--|
-11-11---11-11---12-12--11-11-11----7----11-----11-|
-9--9----11-11---12-12--11-11-11----7----11-----9--|
-9--9----9--9----10-0---9--9--9-----5----9------9--|
comments
print report bad tab
2 comments total.
0 reply
hendrixgirl102 11 wrote on August 28 2009, 04:12 am

Awesome song! nice tab

0 reply
MrSteely 11 wrote on November 28 2009, 05:50 pm

Very nice song, I learned to play guitar just for this one ^^" But, In fact, I don't really understand how to play it (When to play ups, when to play downs...) Help ?! :D

I want to post or [tab]
guest
You may want to rate the tab now too:
select rating
Please do not post tabs as comments. Select "correction" instead!