Oops, an error
Loading. Please wait.

Dis Moi Chords

version 1
version 1

Intro

Whole song

Interactive

19,104 views 9 this week
1 commentread comment
1 2 3 4 5
poor
x 4
add to favorites
launch autoscroll
font size
0
reset
transpose
0
reset
- display chords -
guitar tuner
Tab Pro tools
  • play this tab
  • loop segment
  • change instrument
  • show fretboard
  • metronome
Autoscroll
slow
fast
+/-
esc
set tempo
stop
Contributor
Difficulty
Eb m                    Bb maj                 B maj                   
e---6--------|          ---6--------|          ---7--------|                 
B---6--------|          ---6-----8--|          ---7-----9--|
G---6-----8--|          ---6-----8--|          ---7-----9--|
D---6-----8--|          ---6--7-----|          ---7--8-----|
A---6--7-----|          ---6--------|          ---7--------|
E---6--------|          ---6--------|          ---7--------|

B add11
e---0--------|
B---7-----9--|
G---7-----9--|
D---7--8-----|
A---7--------|
E---7--------|



intro
Eb m, Bb maj, B maj/B add11, Bd maj
 
Une légère envie de violence quand elle relace ses bas
Je ne suis plus à vendre, Houna je n'suis plus comme ça
Des rumeurs adolescentes disent que je ne suis pas
A toi et je pense que par de vrai se cachent

Dis moi si j'dois partir ou pas
Dis moi ! hou hou
Dis moi si tu aimes ça Houna
Car je suis fou de toi Houna
Quand tu n'm'appartiens pas !

Une violente envie de descente lorque t'embrasse ces gars
Je n'ferais point l'enfant tout ça ne m'atteind pas
Des rumeurs adolescentes disent que je ne suis pas
Un homme à femmes et rien d'autre qu'un homme à toi !

Dis moi si j'dois partir ou pas
Dis moi ! hou hou
Dis moi si tu aimes ça Houna
Car je suis fou de toi Houna
Quand tu n'm'appartiens pas !


Quand tu me mords où ça dérange
Et tu m'attache les bras
Quand je fait sautiller sa frange
Ses cris se tirent dans les graves
Les voyeurs en redemandent
Moi je ne veux que Houna
La plus belle des plus belles chambres
Et de la place pour trois !

Dis moi si j'dois partir ou pas
Dis moi ! hou hou
Dis moi si tu aimes ça Houna
Dis moi ! hou hou
Dis moi! Non je ne craquerais pas
Dis moi ! hou hou
Dis moi Si tu aimes ça Houna
Car je suis fou de toi Houna
Quand tu n'm'appartiens pas !
comments
print report bad tab
1 comment total.
0 reply
jermaine.oneal wrote on April 29 2008, 04:39 pm

ces accords n'existent pas, tu t'es trompé dans le sens de la TAB.
et puis c'est pas la bonne hauteur.
c'est plutot:

F# C# D E F#
e -9------9------10-----12-9---
B -10-----9------10-----12-10--
G -11-----10-----11-----13-11--
D -11-----11-----12-----14-11--
A -9------11-----12-----14-9---
E --------9------10-----12-----

I want to post or [tab]
guest
You may want to rate the tab now too:
select rating
Please do not post tabs as comments. Select "correction" instead!