Oops, an error
Loading. Please wait.

Dis Moi Bass

version 2
version 2

Whole song

Interactive

760 views 12 this week
no commentswrite comment
1 2 3 4 5
3 more votes to show rating
add to favorites
launch autoscroll
font size
0
reset
guitar tuner
×
Best way to learn
"Dis Moi"
Autoscroll
slow
fast
+/-
esc
set tempo
stop
Author
Difficulty
  follow
intermediate
Wait 4 bars (first verse), then :
G|----------------------|
D|----------------------|
A|------------5---4-----|
E|-7--------------------|

Chorus :
G|----------------------|----------------------|
D|-4-4------------------|-4-4------------------|
A|-----x4-4-4557--4--44-|-------------5---4----|
E|----------------------|-----x5-5-------------|

G|----------------------|----------------------|
D|-4-4------------------|----------------------|
A|-----x4-4-4557--4--44-|-------------4--------|
E|----------------------|-5--------------------|

Solo bass :
G|----------------------|
D|-4-4------2--2--------|
A|-----x4-4-------55555-|
E|----------------------|

Verse 2 :
G|----------------------|
D|-4-4------2--2--------|
A|-----x4-4-------55555-|
E|----------------------| x3

G|----------------------|
D|----------------------|
A|------------5---4-----|
E|-7--------------------|

Chorus (as previous)

During "Solo guitar" play :
G|----------------------|
D|-4-4------------------|
A|-----x4-4-4557--4--44-|
E|----------------------| x8

Verse 3 :
G|----------------------|
D|-4-4------2--2--------|
A|-----x4-4-------55555-|
E|----------------------| x3

G|----------------------|
D|----------------------|
A|------------5---4-----|
E|-7--------------------|


Last chorus (not as previous) :
G|----------------------|----------------------|
D|-4-4---------2--------|-4-4------------------|
A|-----x4-4-455---4--44-|-------------5---4----|
E|----------------------|-----x5-5-------------| x3

G|----------------------|----------------------|----------------------||
D|-4-4------------------|----------------------|-4--------------------||
A|-----x4-4-4557--4--44-|-------------4--------|----------------------||
E|----------------------|-5--------------------|----------------------||


All sought and tabbed by me, so please, don't steal my work, and if you copy, tell where 
it comes from.
It's the official version, can't do better.
Don't be afraid to hear the music, to get the groove of the bass.

with love, kiwi xx
Suggest correction
Give kudos to tab author, rate the tab!
1 2 3 4 5
comments
print report bad tab
guest
You may want to rate the tab now too:
select rating
Wanna post a correction for this tab? Suggest correction