Oops, an error
Loading. Please wait.

Lost In The Neon World Tab

277 views 1 this week
no commentswrite comment
1 2 3 4 5
excellent!
x 2
add to favorites
launch autoscroll
font size
0
reset
how to read this tab
guitar tuner
Tab Pro tools
  • play this tab
  • loop segment
  • change instrument
  • show fretboard
  • metronome
Autoscroll
slow
fast
+/-
esc
set tempo
stop
Contributor
-------------------------------------------------------------------------------
                Lost In The Neon World - Be Bop Deluxe
-------------------------------------------------------------------------------
Tabbed by: axe victim
Email: See my 'Ultimate Guitar' profile.

Part 4 of the 'Modern Music' suite (from the Modern Music album)
Love playing this one, and that country picking part at the
beginning.


Tuning: EADGBe

| /  slide up
| \  slide down
| h  hammer-on
| p  pull-off
| x  mute note
| G/B chord/bass note
|(x07655) chord shape


Intro: fast country style picking.


Riff 1:

___G__________________________________C_____G/B___Am7_________

e|---------------------------------|-------------------3-3-3-3------|
B|-----0-----0---------------------|-------------------1-1-1-1------|
G|---0-----0-------0-----0---------|-----0-----0-------2-2-2-2------|
D|-4-----5-------0-----0-----------|---2-----0---------2-2-2-2------|
A|-------------4-----5-------0-2---|-3-----2-----0-----0-0-0-0------|
E|-------------------------3-----3-|--------------------------------|

 | 1 - & - 2 - & - 3 - & - 4 - & - | 1 - & - 2 - & - 3 - & - 4 - & -|


...play riff 1 three times then:


___G_________________________________C_____G/B___Am____G____________

e|---------------------------------|--------------------------------|
B|-----0-----0---------------------|--------------------------------|
G|---0-----0-------0-----0---------|-----0-----0-----2---------0---0-
D|-4-----5-------0-----0-----------|---2-----0-----2-------0---0---0-
A|-------------4-----5-------0-2---|-3-----2-----0-------0-----x---x-
E|-------------------------3-----3-|-------------------3-----1---2--|

 | 1 - & - 2 - & - 3 - & - 4 - & - | 1 - & - 2 - & - 3 - & - 4 - & -|

___G__________________________________________________
                                                          " This... "
e|-----3-3---3-3-------3-3---0-0---|-----3-3---3-3-3-3--------------|
B|-----3-3---3-3-------3-3---0-0---|-----3-3---3-3-3-3--------------|
G|-----0-0---0-0-------0-0---0-0---|-----0-0---0-0-0-0--------------|
D|-----0-0---0-0-------0-0---0-0---|-----0-0---0-0-0-0--------------|
A|-------x---x-x---------x---x-x---|-------x---x-x-x-x--------------|
E|-2h3---3---3-3---2h3---3---3-3---|-2h3---3---3-3-3-3--------------|


Verse:


___Cadd9___________G6/B______________A7sus4__________D______________
" jet age life is  getting worse   I feel I'm half a universe... "
e|-0---0-0-----0---0---0-0-----0---|-0---0-0----0----2---2-2-----2--|
B|-3---3-3-----3---3---3-3-----3---|-3---3-3----3----3---3-3-----3--|
G|-0---0-0-----0---0---0-0-----0---|-0---0-0----0----2---2-2-----2--|
D|-2---2-2-----2---0---0-0-----0---|-2---2-2----2----0---0-0-----0--|
A|-3---3-3-----3---2---2-2-----2---|-0---0-0----0-------------------|
E|---------------------------------|--------------------------------|


___G_________________________________C___________G__________________
" away... "
e|---------------------------------|---------------------3-3-3-3----|
B|-----0-----0---------------------|---------------------3-3-3-3----|
G|---0-----0-------0-----0---------|-----0---------------0-0-0-0----|
D|-4-----5-------0-----0-----------|---2-------0---------0-0-0-0----|
A|-------------4-----5-------0-2---|-3-------0-----------x-x-x-x----|
E|-------------------------3-----3-|-------2-----3-------3-3-3-3----|


___Cadd9___________G6/B______________A7sus4__________D______________
" I left my home some time ago   to fight the creatures of the... "
e|-0---0-0-----0---0---0-0-----0---|-0---0-0----0----2---2-2-----2--|
B|-3---3-3-----3---3---3-3-----3---|-3---3-3----3----3---3-3-----3--|
G|-0---0-0-----0---0---0-0-----0---|-0---0-0----0----2---2-2-----2--|
D|-2---2-2-----2---0---0-0-----0---|-2---2-2----2----0---0-0-----0--|
A|-3---3-3-----3---2---2-2-----2---|-0---0-0----0-------------------|
E|---------------------------------|--------------------------------|


___G________________________________C____________G____________
" USA... "
e|---------------------------------|-------------------3-3-3-3------|
B|-----0-----0---------------------|-------------------3-3-3-3------|
G|---0-----0-------0-----0---------|-----0-------------0-0-0-0------|
D|-4-----5-------0-----0-----------|---2-------0-------0-0-0-0------|
A|-------------4-----5-------0-2---|-3-------0---------x-x-x-x------|
E|-------------------------3-----3-|-------2-----3-----3-3-3-3------|


___D_________________________________A_( x07655 )___________________
" You tell me that this neon world is free... "
e|-2-----2-2-----2---2---2-2-------|-----5-----7-----8------9\------|
B|-3-----3-3-----3---3---3-3-------|--------------------------------|
G|-2-----2-2-----2---2---2-2-------|-5/6---6/7---7/8----8/9--\------|
D|-0-----0-0-----0---0---0-0-------|--------------------------------|
A|-----------------------------0---|--------------------------------|
E|---------------------------------|--------------------------------|


___D_________________________________Cadd9__________________________
" You say this is the place I ought to be..."
e|-2-----2-2-----2---2---2-2-------|-0------------------------------|
B|-3-----3-3-----3---3---3-3-------|-3------------------------------|
G|-2-----2-2-----2---2---2-2-------|-0------------------------------|
D|-0-----0-0-----0---0---0-0-------|-2------------------------------|
A|---------------------------------|-3------------------------------|
E|---------------------------------|--------------------------------|


___Cadd9___________G/B_______________A7sus4__________D______________
" The time has come for me to go,you say its fast but it's feeling slow... "
e|-------3---3-----------3---3-----|-------3---3-----------2---2----|
B|-------3---3-----------3---3-----|-------3---3-----------3---3----|
G|-------0---0-----------0---0-----|-------0---0---------2-2---2----|
D|-----2---------------0-----------|-----2-----------0-----0---0----|
A|-3---------------2---------------|-0------------------------------|
E|---------------------------------|--------------------------------|


___G________________________________C______________G________________
" today... "                                             ...neon world! "
e|---------------------------------|-------------------3-3-3-3------|
B|-----0-----0---------------------|-------------------3-3-3-3------|
G|---0-----0-------0-----0---------|-----0-------------0-0-0-0------|
D|-4-----5-------0-----0-----------|---2-------0-------0-0-0-0------|
A|-------------4-----5-------0-2---|-3-------0---------x-x-x-x------|
E|-------------------------3-----3-|-------2-----3-----3-3-3-3------|





Segue into 'Dance Of The Uncle Sam Humanoids'





words and music by Bill Nelson.



| /  slide up
| \  slide down
| h  hammer-on
| p  pull-off
| ~  vibrato
| +  harmonic
| x  Mute note
===============================================================================
comments
We did not receive enough feedback on this tab! Please rate:
print report bad tab
1 2 3 4 5
I want to post or [tab]
guest
You may want to rate the tab now too:
select rating
Please do not post tabs as comments. Select "correction" instead!