Oops, an error
Loading. Please wait.

Martian Honeymoon Tab

317 views 3 this week
no commentswrite comment
1 2 3 4 5
please rate
add to favorites
launch autoscroll
font size
0
reset
how to read this tab
guitar tuner
Autoscroll
slow
fast
+/-
esc
set tempo
stop
Help us to improve Ultimate-Guitar.com Take our survey!
×
Author
-------------------------------------------------------------------------------
                Martian Honeymoon - Be Bop Deluxe
-------------------------------------------------------------------------------
Tabbed by: axe victim
Email: See my 'Ultimate Guitar' profile


Part 3 of the 'Modern Music' suite. Short and sweet, this one. 
The album was about their adventures on tour in the USA - this
song refers to Las Vegas, I believe. 

Tuning:EADGBe

|(2) optional note
| h  hammer-on
| p  pull-off
| G/B chord/bass note


____G______________________G/B_________Em______________________________
".........I wonder if you're all.....alone......beneath those diamond..."
e|-----------3-----------3-------3---|---------0---0---0-0---0---0-0---|
B|-----------3-----------3-------3---|---------0---0---0-0---0---0-0---|
G|-----------0-----------0-------0---|---------0---0---0-0---0---0-0---|
D|-----------0---------0-------0-----|---------2---2---2-2---2---2-2---|
A|-----------------------------------|---------2---2---2-2---2---2-2---|
E|-2-3--------------3-------2--------|-0-------0---0---0-0---0---0-0---|


___A___________________________________Cadd9___________________________
" stars.................a honeymoon on mars..."
e|-----------------------------------|-0-------0-------0-------0-------|
B|-2---------------------------------|-3---------3-------3-------3-----|
G|-2---------------2-----------------|-0-----------0-------0-------0---|
D|-2-----------2---------------------|-2-------------------------------|
A|-0---0---4-------------------------|-3-------------------------------|
E|-----------------------------------|---------------------------------|


___G______________________G/B________Em______________________________
"........Tonight this desert world is ours.....I'll meet you by the..."
e|---------3-----------3-------3---|---------0---0---0-0---0---0-0---|
B|---------3-----------3-------3---|---------0---0---0-0---0---0-0---|
G|---------0-----------0-------0---|---------0---0---0-0---0---0-0---|
D|---------0---------0-------0-----|---------2---2---2-2---2---2-2---|
A|---------------------------------|---------2---2---2-2---2---2-2---|
E|-3--------------3-------2--------|-0-------0---0---0-0---0---0-0---|


___A___________________________________Cadd9____________________________
" towers..........for cocktails in the bars..."
e|-----------------------------------|-0-------0-------0-------0--------|
B|-2---------------------------------|-3---------3-------3-------3------|
G|-2---------------2-----------------|-0-----------0-------0-------0----|
D|-2-----------2---------------------|-2--------------------------------|
A|-0---0---4-------------------------|-3--------------------------------|
E|-----------------------------------|----------------------------------|


___D_______________Dsus4_______________Cadd9_____________________________
"..........Martian honeymoon...................we're going out there in..."
e|-2-------2-----2--3--2---0---2-----|-0-------0-----0--0--0---0--0--0---|
B|-3-------3-----3--3--3---3---3-----|-3-------3-----3--3--3---3--3--3---|
G|-2-------3-----3--3--3---3---3-----|-0-------0-----0--0--0---0--0--0---|
D|-0-------0-----0--0--0---0---0-----|-2-------2-----2--2--2---2--2--2---|
A|-----------------------------------|-3-------3-----3--3--3---3--3--3---|
E|-----------------------------------|-----------------------------------|


___G______________G/B_______________Em______________________________
" July......."
e|----3-3-3---3-------3-3-3---3---|-0---0-0-0---0-------0-0-0---0---|
B|----3-3-3---3-------3-3-3---3---|-0---0-0-0---0-------0-0-0---0---|
G|----0-0-0---0-------0-0-0---0---|-0---0-0-0---0-------0-0-0---0---|
D|----0-0-0---0-------0-0-0---0---|-2---2-2-2---2-------2-2-2---2---|
A|--------------------------------|-2---2-2-2---2-------2-2-2---2---|
E|-3--------------2---------------|-0---0-0-0---0-------0-0-0---0---|


___D_______________Dsus4_______________Cadd9_____________________________
"..........Martian honeymoon.............we'll watch the passing show go..."
e|-2-------2-----2--3--2---0---2-----|-0-------0-----0--0--0---0--0--0---|
B|-3-------3-----3--3--3---3---3-----|-3-------3-----3--3--3---3--3--3---|
G|-2-------3-----3--3--3---3---3-----|-0-------0-----0--0--0---0--0--0---|
D|-0-------0-----0--0--0---0---0-----|-2-------2-----2--2--2---2--2--2---|
A|-----------------------------------|-3-------3-----3--3--3---3--3--3---|
E|-----------------------------------|-----------------------------------|


___G______________G/B_______________Em______________________________
" by..................................Flash Gordons ghost will never..."
e|----3-3-3---3-------3-3-3---3---|-0-------------------------------|
B|----3-3-3---3-------3-3-3---3---|-0-------------------------------|
G|----0-0-0---0-------0-0-0---0---|-0-------------------------------|
D|----0-0-0---0-------0-0-0---0---|-2-------------------------------|
A|--------------------------------|-2-------------------------------|
E|-3--------------2---------------|-0-------------------------------|


___A________________________________Cadd9___________________________
" die..................................he's just a flash across the..."
e|-0-----0-0---0-------0----------|-0-------------------------------|
B|-2-----2-2---2-------2----------|-3-------------------------------|
G|-2-----2-2---2-------2----------|-0-------------------------------|
D|-2-----2-2---2-------2----------|-2-------------------------------|
A|-0-----0-0---0-------0------0-2-|-3-------------------------------|
E|--------------------------------|---------------------------------|


___G___________________________________Cadd9_______________________________
" sky......................................he's just a flash across the..."
e|-3---3-------3----------------------|---------0--------------------------|
B|-3h5-3-------3---0------------------|---------3--------------------------|
G|-0-------2h4--------3p2p0---0h2p0---|---------0--------------------------|
D|-0-------0----------------2-------0-|-2-------2--------------------------|
A|------------------------------------|---------3--------------------------|
E|-3----------------------------------|------------------------------(2)---|


___G___________________________________Cadd9_______________________________
" sky......................................he's just a flash across the..."
e|-3---3-------3----------------------|---------0--------------------------|
B|-3h5-3-------3---0------------------|---------3--------------------------|
G|-0-------2h4--------3p2p0---0h2p0---|---------0--------------------------|
D|-0-------0----------------2-------0-|-2-------2--------------------------|
A|------------------------------------|---------3--------------------------|
E|-3----------------------------------|------------------------------------|


Segue into 'Neon World'


| /  slide up
| \  slide down
| h  hammer-on
| p  pull-off
| ~  vibrato
| +  harmonic
| x  Mute note
===============================================================================
Suggest correction
Give kudos to tab author, rate the tab!
1 2 3 4 5
comments
print report bad tab
guest
You may want to rate the tab now too:
select rating
Please do not post tabs as comments. Select "correction" instead!