Oops, an error
Loading. Please wait.

Mill Street Junction Tab

643 views 3 this week
no commentswrite comment
1 2 3 4 5
please rate
add to favorites
launch autoscroll
font size
0
reset
how to read this tab
guitar tuner
Autoscroll
slow
fast
+/-
esc
set tempo
stop
Help us to improve Ultimate-Guitar.com Take our survey!
×
Author
-------------------------------------------------------------------------------
                             Mill Street Junction - Be Bop Deluxe
-------------------------------------------------------------------------------
Tabbed by: axe victim
Email:

Tuning:EADGBe

 x  mute note
(3) optional note
C/G chord/bass

Concert favourite from the bands early days, as immortalised 
on the 'Live! In The Air Age' album, showcasing Bill Nelsons 
blistering lead guitar.  I have just tabbed the much easier
rhythm parts.



Intro: Palm mute A5 chords, let Asus4 chord ring.


___A5_________________________________________Asus4_

e|--------------------------------------------------|
B|----------------------------------------------3-3-|
G|-2--2--2--2--2--2--2--2-|-2--2--2--2--2--2--2-2-2-|
D|-2--2--2--2--2--2--2--2-|-2--2--2--2--2--2--2-2-2-|
A|-0--0--0--0--0--0--0--0-|-0--0--0--0--0--0--0-0-0-|
E|--------------------------------------------------|


Then this next part four times:

__Asus4__A5___________________________________Asus4_

e|(3)-----------------------------------------------|
B|-3--------------------------------------------3-3-|
G|-2-----2--2--2--2--2--2-|-2--2--2--2--2--2--2-2-2-|
D|-2-----2--2--2--2--2--2-|-2--2--2--2--2--2--2-2-2-|
A|-0-----0--0--0--0--0--0-|-0--0--0--0--0--0--0-0-0-|
E|--------------------------------------------------|


Verse:


___Bm___________________F#m____________F#m7sus4
..........."Behind the gasworks......after.."
e|-2--2-----2--2--2----|-2--2-----2--2--0----|
B|-3--3-----3--3--3----|-2--2-----2--2--0----|
G|-4--4-----4--4--4----|-2--2-----2--2--2----|
D|-4--4-----4--4--4----|-4--4-----4--4--4----|
A|-2--2--2--2--2--2--2-|-4--4-----4--4--4----|
E|---------------------|-2--2--2--2--2--2--2-|



___A_____D/A__A_________A_____D/A__A__
"..midnight..."
e|--------------------|--------------------|
B|-2-----3----2--x--x-|-2-----3----2-------|
G|-2-----2----2--x--x-|-2-----2----2-------|
D|-2-----4----2--x--x-|-2-----4----2-------|
A|-0--0--0----0--x--x-|-0--0--0----0-------|
E|--------------------|--------------------|



___Bm___________________F#m____________F#m7sus4
".......mad Jane she ....holds a sweaty....."
e|-2--2-----2--2--2----|-2--2-----2--2--0----|
B|-3--3-----3--3--3----|-2--2-----2--2--0----|
G|-4--4-----4--4--4----|-2--2-----2--2--2----|
D|-4--4-----4--4--4----|-4--4-----4--4--4----|
A|-2--2--2--2--2--2--2-|-4--4-----4--4--4----|
E|---------------------|-2--2--2--2--2--2--2-|



___A_____D/A__A_________A_____D/A__A__
"..hand."
e|--------------------|--------------------|
B|-2-----3----2--x--x-|-2-----3----2-------|
G|-2-----2----2--x--x-|-2-----2----2-------|
D|-2-----4----2--x--x-|-2-----4----2-------|
A|-0--0--0----0--x--x-|-0--0--0----0-------|
E|--------------------|--------------------|



___Bm___________________F#m____________F#m7sus4
".....And 'though the....rain runs down the..."
e|-2--2-----2--2--2----|-2--2-----2--2--0----|
B|-3--3-----3--3--3----|-2--2-----2--2--0----|
G|-4--4-----4--4--4----|-2--2-----2--2--2----|
D|-4--4-----4--4--4----|-4--4-----4--4--4----|
A|-2--2--2--2--2--2--2-|-4--4-----4--4--4----|
E|---------------------|-2--2--2--2--2--2--2-|



___A_____D/A__A_________A_____D/A__A__
"..gutter..."
e|--------------------|--------------------|
B|-2-----3----2--x--x-|-2-----3----2-------|
G|-2-----2----2--x--x-|-2-----2----2-------|
D|-2-----4----2--x--x-|-2-----4----2-------|
A|-0--0--0----0--x--x-|-0--0--0----0-------|
E|--------------------|--------------------|



First time:

___G_________________G/F#_______________
"....She dreams she hears the gasworks.."
e|-3--------3--------|---------3--------|
B|-3-----------3-----|------------3-----|
G|-0--------------0--|---------------0--|
D|-0----0------------|-----0------------|
A|-x-----------------|------------------|
E|-3-----------------|-2----------------|


__E__________________________________________________
"..Band."
e|------------------------|-------------------------|
B|------------------------|-------------------------|
G|------------------------|-------------------------|
D|-2--2--2--2--2--2--2--2-|-2--2--2--2--2--2--2--2--|
A|-2--2--2--2--2--2--2--2-|-2--2--2--2--2--2--2--2--|
E|-0--0--0--0--0--0--0--0-|-0--0--0--0--0--0--0--0--|




Second time:

___G________________G/F#______________
".....the phantom of the bingo..."
e|---------3--------|---------3--------|
B|------------3-----|------------3-----|
G|---------------0--|---------------0--|
D|-----0------------|-----0------------|
A|------------------|------------------|
E|-3----------------|-2----------------|



___Em___________________________________________
"..hall."
e|-----------0-------------0--------------------|
B|--------0--------0----3-----0-----------------|
G|-----0--------0-------------------------------|
D|--------------------------------------------0-|
A|----------------------------------------------|
E|-0------------------------------0-------2-----|



Repeat that part twice, then:



___C___________________G_________________D5____Dsus4__D_____Dadd9____

e|---------------------3----3-------------------3------2-----0-------|
B|------1--------------3---------3---------3-------3------3-----3----|
G|-----------0---------0-------------0--------2-------2------2-----2-|
D|----------------2----0-----------------0---------------------------|
A|-3-------------------x---------------------------------------------|
E|---------------------3---------------------------------------------|



__Am___________________C/G_______________

e|---------------------------------------|
B|---------1-------------------1---------|
G|-------------2-------------------0-----|
D|-----2-----------2-------2-----------2-|
A|-0-------------------------------------|
E|---------------------3-----------------|



___F_________________________________________________
 ( palm mute )
e|---------------------------------------------------|
B|---------------------------------------------------|
G|---------------------------------------------------|
D|-3--3--3--3--3--3--3--3--|-3--3--3--3--3--3--3--3--|
A|-3--3--3--3--3--3--3--3--|-3--3--3--3--3--3--3--3--|
E|-1--1--1--1--1--1--1--1--|-1--1--1--1--1--1--1--1--|




Repeat from start of verse.  There are two big guitar solos, but the 
rhythm guitar is the same as during the verses.  


Lyrics: 

"Behind the gasworks after midnight
Mad Jane she holds a sweaty hand
And 'though the rain runs down the gutter
She dreams she hears the gasworks band.

"Somewhere cathedral bells are screaming
As someones dog answers a call
And in the back row of 'The Empire'
The phantom of the bingo hall."

"Meanwhile the miners on the night shift
Stand by the pithead in the cold
And 'though their faces look quite dirty
You know to them it feels like gold."

"A neon sign bleeds in the darkness
A thousand clubs for working men
But crazy Jane she's just a mill girl
It's plain she's coming down again."



| C/G chord/bass
| /  slide up
| \  slide down
| h  hammer-on
| p  pull-off
| ~  vibrato
| +  harmonic
| x  Mute note
===============================================================================
Suggest correction
Give kudos to tab author, rate the tab!
1 2 3 4 5
comments
print report bad tab
guest
You may want to rate the tab now too:
select rating
Wanna post a correction for this tab? Suggest correction