Oops, an error
Loading. Please wait.

Modern Music Tab

version 2
version 2

Whole song

400 views 1 this week
no commentswrite comment
1 2 3 4 5
please rate
add to favorites
launch autoscroll
font size
0
reset
how to read this tab
guitar tuner
Autoscroll
slow
fast
+/-
esc
set tempo
stop
Help us to improve Ultimate-Guitar.com Take our survey!
×
Author
-------------------------------------------------------------------------------
Modern Music Reprise - Be Bop Deluxe
-------------------------------------------------------------------------------

Tabbed by: axe victim

Email: Leave a message on my  ‘Ultimate Guitar’  profile or comment 
here and I’ll get back to you.


Final part of the Modern Music Suite from the album of the same name.


Tuning: EADGBe

| /  slide up
| \  slide down
| h  hammer-on
| p  pull-off
| ~  vibrato
| +  harmonic
| x  Mute note
| b  bend
| r  relax bend
| pb pre-bend
| ^  quarter tone bend
|(x32000) chord shape



___G________________________________Cadd9_________________________
           " Modern music   on  my    radio... "
e|-3-----3-3---3-----3-3---3---3--|-3-----3-3---3-----3-3---3---3--|
B|-3-----3-3---3-----3-3---3---3--|-3-----3-3---3-----3-3---3---3--|
G|-0-----0-0---0-----0-0---0---0--|-0-----0-0---0-----0-0---0---0--|
D|-0-----0-0---0-----0-0---0---0--|-2-----2-2---2-----2-2---2---2--|
A|-2-----2-2---2-----2-2---2---2--|-3-----3-3---3-----3-3---3---3--|
E|-3-----3-3---3-----3-3---3---3--|-x-----x-x---x-----x--x--x---x--|

 | 1 - & - 2 - & - 3 - & - 4 - & -| 1 - & - 2 - & - 3 - & - 4 - & -|


___G________________________________Cmaj7__________________________
       " another station       and   another     show... "
e|-3-----3-3---3-----3-3---3---3--|-0-----0-0---0-----0-0---0---0--|
B|-3-----3-3---3-----3-3---3---3--|-0-----0-0---0-----0-0---0---0--|
G|-0-----0-0---0-----0-0---0---0--|-0-----0-0---0-----0-0---0---0--|
D|-0-----0-0---0-----0-0---0---0--|-2-----2-2---2-----2-2---2---2--|
A|-2-----2-2---2-----2-2---2---2--|-3-----3-3---3-----3-3---3---3--|
E|-3-----3-3---3-----3-3---3---3--|-x-----x-x---x-----x-x---x---x--|



___D________________________________Em_____________________________
      " If only I    could let my   feel - ings flow... "
e|-2-----2-2---2-----2-2---2---2--|-0----0--0--+12+-----------------|
B|-3-----3-3---3-----3-3---3---3--|-0----0--0--+12+-----------------|
G|-2-----2-2---2-----2-2---2---2--|-0----0--0--+12+-----------------|
D|-0-----0-0---0-----0-0---0---0--|-2----2--2--+12+-----------------|
A|--------------------------------|-2----2--2--+12+-----------------|
E|--------------------------------|-0----0--0--+12+-----------------|
                                             ( +harmonics+ )



___Cmaj7_(x32000)____________________D_(xx0232)__________________________
( lead guitar )
e|-----------------------------------------------------------------------|
B|--------15--12~~~~~~~\---------15--12~~~~----12------------------------|
G|------------------------------------------------14b16b14-12----14b16~~~|
D|-12h14-------------------12h14------------------------------14---------|
A|-----------------------------------------------------------------------|
E|-----------------------------------------------------------------------|



___G________________________________Cadd9_________________________
    " When you're lonely and you're far away... "
e|-3-----3-3---3-----3-3---3---3--|-3-----3-3---3-----3-3---3---3--|
B|-3-----3-3---3-----3-3---3---3--|-3-----3-3---3-----3-3---3---3--|
G|-0-----0-0---0-----0-0---0---0--|-0-----0-0---0-----0-0---0---0--|
D|-0-----0-0---0-----0-0---0---0--|-2-----2-2---2-----2-2---2---2--|
A|-2-----2-2---2-----2-2---2---2--|-3-----3-3---3-----3-3---3---3--|
E|-3-----3-3---3-----3-3---3---3--|-x-----x-x---x-----x--x--x---x--|


___G________________________________Cmaj7__________________________
        " when those blue guitars begin to play... "
e|-3-----3-3---3-----3-3---3---3--|-0-----0-0---0-----0-0---0---0--|
B|-3-----3-3---3-----3-3---3---3--|-0-----0-0---0-----0-0---0---0--|
G|-0-----0-0---0-----0-0---0---0--|-0-----0-0---0-----0-0---0---0--|
D|-0-----0-0---0-----0-0---0---0--|-2-----2-2---2-----2-2---2---2--|
A|-2-----2-2---2-----2-2---2---2--|-3-----3-3---3-----3-3---3---3--|
E|-3-----3-3---3-----3-3---3---3--|-x-----x-x---x-----x-x---x---x--|


___D________________________________Em_____________________________
 " please don't let them steal your heart     away... "
e|-2-----2-2---2-----2-2---2---2--|-0----0--0--+12+-----------------|
B|-3-----3-3---3-----3-3---3---3--|-0----0--0--+12+-----------------|
G|-2-----2-2---2-----2-2---2---2--|-0----0--0--+12+-----------------|
D|-0-----0-0---0-----0-0---0---0--|-2----2--2--+12+-----------------|
A|--------------------------------|-2----2--2--+12+-----------------|
E|--------------------------------|-0----0--0--+12+-----------------|
                                             ( +harmonics+ )


___Cmaj7_(x32000)____________________D_(xx0232)__________________________
( lead guitar )
e|-----------------------------------------------------------------------|
B|--------15--12~~~~~~~\---------15--12~~~~------------------------------|
G|-----------------------------------------------10^~~~~~~~9-p7-h9~~~~~--|
D|-12h14-------------------12h14-----------------------------------------|
A|-----------------------------------------------------------------------|
E|-----------------------------------------------------------------------|




___E5__________Bsus4/E_____E5__Aadd9/E______E5_____________________
" from me...                      please don't let them steal your... "  
e|---------0---0-----------0---0--|---------0----------------------|
B|---------0---0-----------0---0--|---------0----------------------|
G|---------9---8-----------x---6--|---------x----------------------|
D|---------9---9-----------x---7--|---------x-------2---2---2------|
A|---------7---9-----------x---7--|---------x---2h4-----------4p2h4-
E|-0-------0---0---0-------0---0--|-0-------0----------------------|



___E5__________Bsus4/E_____E5__Aadd9/E______E5_____________________
 " heart away...                                             from... "
e|---------0---0-----------0---0--|---------0----------------------|
B|---------0---0-----------0---0--|---------0----------------------|
G|---------9---8-----------x---6--|---------x----------------------|
D|---------9---9-----------x---7--|---------x-------5/6-----2------|
A|---------7---9-----------x---7--|---------x-----------2h4---4p2h4-
E|-0-------0---0---0-------0---0--|-0-------0----------------------|



___E5__________Bsus4/E_____E5__Aadd9/E______E5_____________________
 " me...                         please don't let them steal your... "
e|---------0---0-----------0---0--|---------0----------------------|
B|---------0---0-----------0---0--|---------0----------------------|
G|---------9---8-----------x---6--|---------x----------------------|
D|---------9---9-----------x---7--|---------x-------2-------2-----2-
A|---------7---9-----------x---7--|---------x---2h4---4------------|
E|-0-------0---0---0-------0---0--|-0-------0-----------3h4---3h4--|



___E5__________Bsus4/E_____E5__Aadd9/E______E5_____________________
 " heart away... "
e|---------0---0-----------0---0--|---------0----------------------|
B|---------0---0-----------0---0--|---------0----------------------|
G|---------9---8-----------x---6--|---------x----------------------|
D|---------9---9-----------x---7--|---------x-------2--------------|
A|---------7---9-----------x---7--|---------x---------4---2--------|
E|-0-------0---0---0-------0---0--|-0-------0-----------------4-2--|



Ending:


___E________________________________A________________________Bb_B__
 " ooh... "
e|-----0-0-0---0-0-0---0-0-0---0-0|-0---0-0-0---0-0-0---0-0-0-0-0--|
B|-----0-0-0---0-0-0---0-0-0---0-0|-0---0-0-0---0-0-0---0-0-0-0-0--|
G|-----1-1-1---1-1-1---1-1-1---1-1|-6---6-6-6---6-6-6---6-6-6/7/8--|
D|-----2-2-2---2-2-2---2-2-2---2-2|-7---7-7-7---7-7-7---7-7-7/8/9--|
A|-----2-2-2---2-2-2---2-2-2---2-2|-7---7-7-7---7-7-7---7-7-7/8/9--|
E|-0---0-0-0---0-0-0---0-0-0---0-0|-0---0-0-0---0-0-0---0-0-0-0-0--|

 | 1 - & - 2 - & - 3 - & - 4 - & -| 1 - & - 2 - & - 3 - & - 4 - & -|


___E________________________________A________________________Bb_B__
 " ooh... "
e|-----0-0-0---0-0-0---0-0-0---0-0|-0---0-0-0---0-0-0---0-0-0-0-0--|
B|-----0-0-0---0-0-0---0-0-0---0-0|-0---0-0-0---0-0-0---0-0-0-0-0--|
G|-----1-1-1---1-1-1---1-1-1---1-1|-6---6-6-6---6-6-6---6-6-6/7/8--|
D|-----2-2-2---2-2-2---2-2-2---2-2|-7---7-7-7---7-7-7---7-7-7/8/9--|
A|-----2-2-2---2-2-2---2-2-2---2-2|-7---7-7-7---7-7-7---7-7-7/8/9--|
E|-0---0-0-0---0-0-0---0-0-0---0-0|-0---0-0-0---0-0-0---0-0-0-0-0--|



Repeat until...


___E________________________________A______________________________

e|-----0-0-0---0-0-0---0-0-0---0-0|-0---0-0-0---0------------------|
B|-----0-0-0---0-0-0---0-0-0---0-0|-0---0-0-0---0------------------|
G|-----1-1-1---1-1-1---1-1-1---1-1|-6---6-6-6---6------------------|
D|-----2-2-2---2-2-2---2-2-2---2-2|-7---7-7-7---7---2--------------|
A|-----2-2-2---2-2-2---2-2-2---2-2|-7---7-7-7---7-----4---2--------|
E|-0---0-0-0---0-0-0---0-0-0---0-0|-0---0-0-0---0-------------4-2--|

 | 1 - & - 2 - & - 3 - & - 4 - & -| 1 - & - 2 - & - 3 - & - 4 - & -|


___E_______________________________________________________________

e|-0------------------------------|--------------------------------|
B|-0------------------------------|--------------------------------|
G|-1------------------------------|--------------------------------|
D|-2------------------------------|--------------------------------|
A|-2------------------------------|--------------------------------|
E|-0------------------------------|--------------------------------|



Disc jockey voice to end.




Suggest correction
Give kudos to tab author, rate the tab!
1 2 3 4 5
comments
print report bad tab
guest
You may want to rate the tab now too:
select rating
Wanna post a correction for this tab? Suggest correction