Oops, an error
Loading. Please wait.

New Precision bass

163 views 3 this week
1 commentread comment
1 2 3 4 5
2 more votes to show rating
add to favorites
×
Save as Personal and add changes to this tab that will be seen only by you. Learn more ›
×
You can save this tab as Personal to edit and correct it or add notes. All changes will be seen only by you. Learn more »
launch autoscroll
font size
0
reset
guitar tuner
edit
Autoscroll
slow
fast
+/-
esc
set tempo
stop
Author
Difficulty
Be Bop Deluxe - New Precision, as recorded on Drastic Plastic (1978)

The notes are played stacato. The timing may not be in strict eight notes, 
but play it by feeling and you'll find where the notes go. These are the 
different parts played for each phrase during the song. The original bass 
line is very simple, giving plenty of room for your own embellishments.

Intro (part 1)
   1 & 2 & 3 & 4 &   1 & 2 & 3 & 4 &   1 & 2 & 3 & 4 &   1 & 2 & 3 & 4 &
G|-----------------|-----------------|-----------------|-----------------|
D|-----------------|-----------------|-----------------|-----------------|
A|-----------------|-----------------|-----------------|-----------------|
E|-3---3---3---3---|-3---3---3---3---|-3---3---3---3---|-3---3---3---3---|

Intro (part 2)
   1 & 2 & 3 & 4 &   1 & 2 & 3 & 4 &   1 & 2 & 3 & 4 &   1 & 2 & 3 & 4 &
G|-----------------|-----------------|-----------------|-----------------|
D|-----------------|-----------------|-----------------|-----------------|
A|-----------------|-----------------|-----------------|-----------------|
E|-3---3---3-3-1-0-|-3---3---3-3-1-0-|-3---3---3-3-1-0-|-3---3---3-3-1-0-|


Verse [play 4 times]
   1 & 2 & 3 & 4 &   1 & 2 & 3 & 4 &   1 & 2 & 3 & 4 &   1 & 2 & 3 & 4 &
G|-----------------|-----------------|-----------------|-----------------|
D|-----------------|-----------------|-----------------|-----------------|
A|-----------------|-----------------|-----------------|-----------------|
E|-3---3---3-3-1-0-|-5---5---5-5-3-1-|-3---3---3-3-1-0-|-3---3---3-3-1-0-|


Chorus (instrumental break between verses) [play 2 times]
   1 & 2 & 3 & 4 &   1 & 2 & 3 & 4 &   1 & 2 & 3 & 4 &   1 & 2 & 3 & 4 &
G|-----------------|-----------------|-----------------|-----------------|
D|-----------------|-----------------|-----------------|-----------------|
A|-----------------|-----------------|-----------------|-----------------|
E|-6---6---4-4-2-2-|-6---6---4-4-2-2-|-6---6---4-4-2-2-|-6---6---4-4-2-2-|


Outro [repeat as it fades away]
   1 & 2 & 3 & 4 &   1 & 2 & 3 & 4 &   1 & 2 & 3 & 4 &   1 & 2 & 3 & 4 &
G|-----------------|-----------------|-----------------|-----------------|
D|-----------------|-----------------|-----------------|-----------------|
A|-----------------|-----------------|-----------------|-----------------|
E|-3---3---3---3---|-3---3---3---3---|-3---3---3---3---|-3---3---3---3---|

Outro ending (whole notes, not stacato) [repeat as it fades away] 
   1 & 2 & 3 & 4 &   1 & 2 & 3 & 4 &   1 & 2 & 3 & 4 &   1 & 2 & 3 & 4 &
G|-----------------|-----------------|-----------------|-----------------|
D|-----------------|-----------------|-----------------|-----------------|
A|-----------------|-----------------|-----------------|-----------------|
E|-3---------------|-1---------------|-3---------------|-1---------------|

            
            
Suggest correction
Creating personal tab
Creating personal tab
You can edit any tab online and save it as your Personal.

You can edit, replace or remove any tab part or add personal notes – all changes will be seen only by you.

Personal tabs can be accessed anytime from any device, even offline.
Learn more »
Give kudos to tab author, rate the tab!
1 2 3 4 5
comments
print report bad tab
1 comment total.
0 reply
axe victim 1,904 Feb 26, 2013 05:41 AM

Great track, love the guitar solos on this one, I will get around to tabbing this song one day.

cheers,axe

guest
You may want to rate the tab now too:
select rating
Wanna post a correction for this tab? Suggest correction