Oops, an error
Loading. Please wait.

Youre The Gold At The End Of My Rainbow Chords

1,627 views 1 this week
2 commentsread comments
1 2 3 4 5
excellent!
x 3
add to favorites
launch autoscroll
font size
0
reset
transpose
0
reset
display chords
guitar tuner
Autoscroll
slow
fast
+/-
esc
set tempo
stop
Help us to improve Ultimate-Guitar.com Take our survey!
×
Author
axe victim 2,021
-------------------------------------------------------------------------------
        You're The Gold At The End Of My Rainbow - Be Bop Deluxe
-------------------------------------------------------------------------------

Tabbed by: axe victim

Email: leave a message on my  Ultimate Guitar  profile.

Another tune from the  Modern Music  album.  Some of the lead parts 
are tabbed, especially the solo at the end, but I haven't attempted 
the 'reverse' guitar part in the middle.  


Tuning: EADGBe

| D/C# chord/bass note
| h  hammer-on
| p  pull-off
| x  Mute note
| /  slide up
| \  slide down
| b  bend
| r  relax bend
| pb pre-bend
|(xx0232) chord shape


Intro: ( strum acoustic guitar ad-lib throughout... )


___D_____________A__________________G______________________________

e|-2-------2-----0-0-0---0-0---0-0|-3-----3-3---3------------------|
B|-3-------3-----2-2-2---2-2---2-2|-3-----3-3---3------------------|
G|-2-------2-----2-2-2---2-2---2-2|-0-----0-0---0------------------|
D|-0-------0-----2-2-2---2-2---2-2|-0-----0-0---0--------------0---|
A|---------------0-0-0---0-0---0-0|-2-----2-2---2----------0h2---2-|
E|--------------------------------|-3-----3-3---3--------3---------|

 | 1 - & - 2 - & - 3 - & - 4 - & -| 1 - & - 2 - & - 3 - & - 4 - & -|

___D_____________A__________________G______________________________

e|-2---2-2-2---0-0-0---0-0-0---0-0|-3---3-3-3---3------------------|
B|-3---3-3-3---2-2-2---2-2-2---2-2|-3---3-3-3---3------------------|
G|-2---2-2-2---2-2-2---2-2-2---2-2|-0---0-0-0---0------------------|
D|-0---0-0-0---2-2-2---2-2-2---2-2|-0---0-0-0---0------------------|
A|-------------0-0-0---0-0-0---0-0|-2---2-2-2---2------------------|
E|--------------------------------|-3---3-3-3---3------------------|



Verse:


___A_______________G_______Bm_______D______________________________
    " The  cup  of sorrow  over  -  flows "
e|-0---------------3-------2------|-2-------2---2-2-2-2---2-2---2--|
B|-2---------------3-------3------|-3-------3---3-3-3-3---3-3---3--|
G|-2---------------0-------4------|-2-------2---2-2-2-2---2-2---2--|
D|-2---------------0-------4------|-0-------0---0-0-0-0---0-0---0--|
A|-0---------------x-------2------|--------------------------------|
E|-----------------3--------------|--------------------------------|

 | 1 - & - 2 - & - 3 - & - 4 - & -| 1 - & - 2 - & - 3 - & - 4 - & -|


___A_______________G_______Bm_______D_______________D/C#___________
        " Nothing shows no nothing  glows    but my soul is all at... "
e|-0---------------3-------2------|-2-----2-2-------2-----2-2------|
B|-2---------------3-------3------|-3-----3-3-------3-----3-3------|
G|-2---------------0-------4------|-2-----2-2-------2-----2-2------|
D|-2---------------0-------4------|-0-----0-0-------x-----x-x------|
A|-0---------------x-------2------|-----------------4-----4-4------|
E|-----------------3--------------|--------------------------------|



___Gmaj7/B__________________________D_______________D/C#___________
"..sea...                          ...the night has had its way with... "
e|-2------------------------------|-2-----2-2-------2-----2-2------|
B|-3------------------------------|-3-----3-3-------3-----3-3------|
G|-0--------7~~--7---9^r9p7--9b11~~-2-----2-2-------2-----2-2------|
D|-0----7h9----9---9-------9------|-0-----0-0-------x-----x-x------|
A|-2------------------------------|-----------------4-----4-4------|
E|-x------------------------------|--------------------------------|

 | 1 - & - 2 - & - 3 - & - 4 - & -| 1 - & - 2 - & - 3 - & - 4 - & -|

___Gmaj7/B________________________
"..me... "       ( lead guitar... )
e|-2-----2-2---2---------10-------|--
B|-3-----3-3---3-----------10-----|--
G|-0-----0-0---0-9b11~~~---pb11r9~~~~ 
D|-0-----0-0---0------------------|--
A|-2-----2-2---2------------------|--
E|-x-----x-x---x------------------|--


___A_______________G_______Bm_______D______________________________
    " This game is growing rather   grim... "   ( lead guitar... )
e|-0---------------3-------2------|-2------------------------------|---
B|-2---------------3-------3------|-3-10b12~~7--10-7h10p7----------|---
G|-2---------------0-------4------|-2--------------------9-7-------|---
D|-2---------------0-------4------|-0-----------------------9-7----|---
A|-0---------------x-------2------|----------------------------9p7p5h7-
E|-----------------3--------------|--------------------------------|---


etc...

Repeat verse until...


Chorus: " 'cause you're the... "


___G_______________A________________D_______D/C#__Gmaj7/B___A______
"..gold   at the end        of my rain     -      bow        the... "
e|-3-------3-------0-------0------|-2-------2-------2--------------|
B|-3-------3-------2-------2------|-3-------3-------3-------2------|
G|-0-------0-------2-------2------|-2-------2-------0-------2------|
D|-0-------0-------2-------2------|-0-------x-------x-------2------|
A|-2-------2-------0-------0------|---------4-------2-------0------|
E|-3-------3----------------------|--------------------------------|


___G_______________A________________D_________________F/D_____G/D__
"..ghost  with the silver           smile                 you're the... "
e|-3-------3-------0-------0------|-2-----------------5-5-5---7-7--|
B|-3-------3-------2-------2------|-3-----------------6-6-6---8-8--|
G|-0-------0-------2-------2------|-2-----------------5-5-5---7-7--|
D|-0-------0-------2-------2------|-0-----------------0-0-0---0-0--|
A|-2-------2-------0-------0------|--------------------------------|
E|-3-------3----------------------|--------------------------------|


___G_______________A________________D_______D/C#____Gmaj7/B________
"..gold     at the end        of my rain     -      bow... "
e|-3-------3-------0-------0------|-2-------2-------2--------------|
B|-3-------3-------2-------2------|-3-------3-------3--------------|
G|-0-------0-------2-------2------|-2-------2-------0--------------|
D|-0-------0-------2-------2------|-0-------x-------x--------------|
A|-2-------2-------0-------0------|---------4-------2--------------|
E|-3-------3----------------------|--------------------------------|


___Em______________A________________Em______________A______________
    " oh won't you stay with me      please won't you stay with me... "
e|---------0---------0---0-0-0-0--|---------0-------0-0---0-0-0----|
B|---------0---------2---2-2-2-2--|---------0-------2-2---2-2-2----|
G|---------0---------2---2-2-2-2--|---------0-------2-2---2-2-2----|
D|---------2---------2---2-2-2-2--|---------2-------2-2---2-2-2----|
A|---------2-------0-0---0-0-0-0--|---------2-------0-0---0-0-0----|
E|-0-------0----------------------|-0---0---0----------------------|


___Em______________G_______A________D______________________________
    " oh won't you stay with me   a while? "   ( reverse guitar solo )
e|---------0-------3-------0------|-2------------------------------|
B|---------0-------3-------2------|-3------------------------------|
G|---------0-------0-------2------|-2------------------------------|
D|---------2-------0-------2------|-0------------------------------|
A|---------2-------2-------0------|--------------------------------|
E|-0-------0-------3--------------|--------------------------------|



Final part ( first time has reversed guitar solo... )


___G/D_____________Dmaj7____________Em/D____________D______________
( guitar solo... )
e|-7-------7-------5-------5------|-3-------3-------2--------------|
B|-8-------8-------7-------7------|-5-------5-------3--------------|
G|-7-------7-------6-------6------|-4-------4-------2--------------|
D|-0-------0-------0-------0------|-0-------0-------0--------------|
A|--------------------------------|--------------------------------|
E|--------------------------------|--------------------------------|


___G/D_____________Dmaj7____________Em/D____________D______________
( guitar solo... )
e|-7-------7-------5-------5------|-3-------3-------2--------------|
B|-8-------8-------7-------7------|-5-------5-------3--------------|
G|-7-------7-------6-------6------|-4-------4-------2--------------|
D|-0-------0-------0-------0------|-0-------0-------0--------------|
A|--------------------------------|--------------------------------|
E|--------------------------------|--------------------------------|



Repeat verse, chorus and final part.  

Some additional guitar parts below...


___A_______________G_______Bm_____
          " Our enemies are at the... "
e|-0---------------3-------2------|
B|-2---------------3-------3------|
G|-2---------------0-------4------|
D|-2---------------0-------4------|
A|-0---------------x-------2------|
E|-----------------3--------------|


___D_(xx0232)____________________________________________________
" gate " ( lead guitar... )
e|----------------------------------------------------------------|--
B|-13b15~~~~~~~~~~~13-12-10---------------------------------------|--
G|---------------------------------12--10/11----------------------|--
D|--------------------------------------------12------------------|--
A|-------------------------------------------------8h10-8-10-8b9--|--
E|--------------------------------------------------------------10~~~~

 | 1   -   &   -   2   -   &   -   3   -   &   -   4   -   &   -  |


" but my sword is in my... "

___Gmaj7/B________________________
" hand... "     ( lead guitar... )
e|-2-------10---------------------|
B|-3---------10~~~~~-7h10p7---7------------------
G|-0------------------------9---7---9b11~9b11~~~~ 
D|-0------------------------------9-------------- 
A|-2------------------------------|
E|-x------------------------------|


" and I will fight at your... "

___Gmaj7/B________________________
" command... "  ( lead guitar... )
e|-2-----------------7------------|
B|-3-------------------7-10---7-------------
G|-0-------9~~b11~~~~-------9---7-9---------
D|-0--------------------------------9/11~~~~ 
A|-2------------------------------|
E|-x------------------------------|


Chorus, then:

End guitar solo: " Oh, won't you stay with me... "


___D_(xx0232)______________________
" awhile... "  ( guitar solo begins... )
e|--------------------------------|
B|--------------------------------|
G|--------------------------------|
D|----------------------------7h9-|
A|--------------------------------|
E|--------------------------------|
 | 1 - & - 2 - & - 3 - & - 4 - & -|


  ( I have doubled the length of the bars here to show detail... )


___G/D_(xx0787)____________________Dmaj7_(xx0675)_________________
( guitar solo... )
e|----------------------------------------------------------------|
B|----------------------------------------------------------------|
G|-7~~~~~~~~~~~~~~~------pb11~r9---7~~~~~~~~~~~~~~~-------9b~~~11~|
D|----------------------------------------------------------------|
A|----------------------------------------------------------------|
E|----------------------------------------------------------------|


___Em/D_(xx0453)___________________D_(xx0232)_____________________
( guitar solo... )
e|---------10-----------------------------------------------------|
B|------------10-----------------------------------------------10-|
G|~~~~~~~~~----pb11r9--7---9-p7----9b11~~9b11~~~~~~~~~~~---9b11---|
D|------------------------------9---------------------------------|
A|----------------------------------------------------------------|
E|----------------------------------------------------------------|

 | 1   -   &   -   2   -   &   -   3   -   &   -   4   -   &   -  |

___G/D_(xx0787)____________________Dmaj7_(xx0675)_________________
( guitar solo... )
e|-10---------8----10-------------8b10---8----7-------------------|
B|------10-----------------------------------------10----8--6/7---|
G|----------------------------------------------------------------|
D|----------------------------------------------------------------|
A|----------------------------------------------------------------|
E|----------------------------------------------------------------|


___Em/D_(xx0453)___________________D_(xx0232)_____________________
( guitar solo... )                ( repeat triplets and fade out... )
e|-------------------------10------14p12p10--------14p12p10-------|-
B|--------------10/12--10------------------14p12p10--------14p12p10-
G|-7--------------------------------------------------------------|-
D|------7/9---7---------------------------------------------------|-
A|----------------------------------------------------------------|-
E|----------------------------------------------------------------|-
 | 1   -   &   -   2   -   &   -   3   - ( free time... )



Lyrics:


The cup of sorrow overflows...
Nothing shows , no nothing glows,
But my soul is all at sea...
The night has had it's way with me...

This game is growing rather grim...
And some of us must sink or swim
But I'll play the sailor brave...
From the cradle to my grave...

'Cause you're the gold at the ned of ny rainbow,
The ghost with the silver smile...
You're the gold at the end of my rainbow...
Oh, won't you stay with me,
Please won't you stay with me,
Oh, won't you stay with me awhile...

Our enemies are at the gate...
Well armed with jealousy and hate...
But my sword is in my hand
And I will fight at your command...

The storm is raging in my head...
The things I've done, 
The words I've said...
Never change your skies to grey...
For I will chase the clouds away,

'Cause you're the gold at the ned of ny rainbow,
The ghost with the silver smile...
You're the gold at the end of my rainbow...
Oh, won't you stay with me,
Please won't you stay with me,
Oh, won't you stay with me awhile...


Word and music by Bill Nelson.



| D/C# chord/bass note
| h  hammer-on
| p  pull-off
| x  Mute note
| /  slide up
| \  slide down
| b  bend
| r  relax bend
| pb pre-bend
|(xx0232) chord shape

Suggest correction new What's this?
You can suggest a correction to this tab. Community and Mods will review your correction and vote to approve or reject it.
comments
We did not receive enough feedback on this tab! Please rate:
print report bad tab
1 2 3 4 5
2 comments total.
0 reply
russgies 12 wrote on November 10 2009, 03:59 pm

I tabbed the reversed parts at the beginning and between the verses. The first one is actually a reversed transcription of the original non-reversed bit, and the second I did straight from the recording.

This needs a lot of interpretation to get close to the sound on record:


| h hammer-on
| p pull-off
| x Mute note
| / slide up
| \ slide down
| b bend
| r relax bend
| pb pre-bend
| ( ) triplet

e|--------------------------------|
B|-----------------------------10-|
G|-----------7~~~~~~~~~11p9-11----|
D|--------------------------------|
A|--------------------------------|
E|--------------------------------|

D A
e|---------------------------------------12p10-12-14p12-|
B|-12-12b14r12-10b12r10---------------10----------------|
G|------------------------11p9---11p9-------------------|
D|----------------------9------9------------------------|
A|------------------------------------------------------|
E|------------------------------------------------------|

e|-17b19r15-14-12-(14-12-10)-(12-10-9)-(12-10-9)-(7-5-3)-7-|
B|---------------------------------------------------------|
G|---------------------------------------------------------|
D|---------------------------------------------------------|
A|---------------------------------------------------------|
E|---------------------------------------------------------|

D A
e|-5-3-2---3p2-------------0-2-3-0-2h3p2-3-5-3-|
B|-------5-----2-----2-------------------------|
G|---------------4p2---4-2---------------------|
D|---------------------------------------------|
A|---------------------------------------------|
E|---------------------------------------------|

e|-5p4-5-7~~~-9-7-9/10-9-7-9/10-7-10p9-10-12-10-12-|
B|-------------------------------------------------|
G|-------------------------------------------------|
D|-------------------------------------------------|
A|-------------------------------------------------|
E|-------------------------------------------------|


And here's the second bit:


G/D Dmaj7
e|------------------------10-12-14-12-----|
B|----------------7----12-------------10--|
G|---7—-9b10r7----------------------------|
D|-7------------9-------------------------|
A|----------------------------------------|
E|----------------------------------------|

Em/D D
e|------------------------------------------------------|
B|-14-12p10----12p10------------------------------------|
G|----------12-------12-11p9----11p9--------------------|
D|---------------------------12------12-11p9----11p9----|
A|-------------------------------------------12------12-|
E|------------------------------------------------------|

G/D Dmaj7
e|---------------------------------------|
B|-----------------------------------12--|
G|----14-12p11----11h12--14-12-11-12-----|
D|-12----------14------------------------|
A|---------------------------------------|
E|---------------------------------------|

Em/D D
e|----------------------12—(12-14-15)-12—(14-15-17)-14—(15-17-19)-17--|
B|----14-12-14b15r14b15-----------------------------------------------|
G|-14-----------------------------------------------------------------|
D|--------------------------------------------------------------------|
A|--------------------------------------------------------------------|
E|--------------------------------------------------------------------|

0 reply
axe victim 2,021 wrote on November 13 2009, 01:16 pm

Thanks for filling in the gaps, dude!

guest
You may want to rate the tab now too:
select rating
Please do not post tabs as comments. Select "correction" instead!