Oops, an error
Loading. Please wait.

Adventure tab

version 1
version 1

Whole song

1,000 views 1 this week
3 commentsread comments
1 2 3 4 5
x 5
add to favorites
×
Save as Personal and add changes to this tab that will be seen only by you. Learn more ›
×
You can save this tab as Personal to edit and correct it or add notes. All changes will be seen only by you. Learn more »
launch autoscroll
font size
0
reset
how to read this tab
guitar tuner
edit
Autoscroll
slow
fast
+/-
esc
set tempo
stop
Author
Difficulty
----------------------------------------------------------------------------
                          ADVENTURE – Be Your Own Pet
----------------------------------------------------------------------------
Tuning: standard

I’ve decided to send in the tab I made for this song since my band was covering 
it, hope you guys like it.

Intro: 

e|---5-5-5-5-5--8-8-8-8-8\---|
B|---------------------------| (x1)
G|---------------------------|
D|---------------------------|
A|---------------------------|
E|---------------------------|

Verse 1: (the guitar kicks in right when Jemina Pearl starts singing the first verse)

e|-----2---2---2------------------------------------------|
B|---1---1---1----0-3-0-3-0-3----1---1---1--0-3-0-3-0-3---| (x4)
G|-----------------------------2---2---2------------------|
D|--------------------------------------------------------|
A|--------------------------------------------------------|
E|--------------------------------------------------------|

Chorus:

e|---5-5-5-5-5-5--8-8-8-8-8-8--10-10-10-10-10-10--8-8-8-8-8-8---|
B|--------------------------------------------------------------| (x4)
G|--------------------------------------------------------------|
D|--------------------------------------------------------------|
A|--------------------------------------------------------------|
E|--------------------------------------------------------------|

e|---1(let ring)—8(let ring)—20(let ring)---|
B|------------------------------------------| (x1)
G|------------------------------------------|
D|------------------------------------------|
A|------------------------------------------|
E|------------------------------------------|

Verse 2:

e|-----2---2---2------------------------------------------|
B|---1---1---1----0-3-0-3-0-3----1---1---1--0-3-0-3-0-3---| (x4)
G|-----------------------------2---2---2------------------|
D|--------------------------------------------------------|
A|--------------------------------------------------------|
E|--------------------------------------------------------|

Chorus:

e|---5-5-5-5-5-5--8-8-8-8-8-8--10-10-10-10-10-10--8-8-8-8-8-8---|
B|--------------------------------------------------------------| (x4)
G|--------------------------------------------------------------|
D|--------------------------------------------------------------|
A|--------------------------------------------------------------|
E|--------------------------------------------------------------|

Bridge: (written by James Morris)

e|----------------------------------------------------------|
B|----------------------------------------------------------| (x4)
G|----------------------------------------------------------|
D|----------------------------------------------------------|
A|-3-2-0--3-2-0----------------3-2-0--3-2-0-----------------|
E|---------------3-3-/5-1-1-1----------------3-3-/5-0-0-0---|



(This is the only part I’m unsure about. It could be single notes instead of 16ths)
e|---------------------------------------------------------------------|
B|-----1---1---1----0---0---0-----------------0---0---0---0(let ring)--|(1x)
G|---2---2---2----1---1---1------2---2---2--1---1---1------------------|
D|-----------------------------4---4---4-------------------------------|
A|---------------------------------------------------------------------|
E|---------------------------------------------------------------------|

Outro:

e|---5-5-5-5-5-5--8-8-8-8-8-8--10-10-10-10-10-10--8-8-8-8-8-8---|
B|--------------------------------------------------------------|  (x8)
G|--------------------------------------------------------------|
D|--------------------------------------------------------------|
A|--------------------------------------------------------------|
E|--------------------------------------------------------------|


Enjoy! :D


| /  slide up
| \  slide down
| h  hammer-on
| p  pull-off
| ~  vibrato
| +  harmonic
| x  Mute note
===========================================================================

            
            
Suggest correction
Creating personal tab
Creating personal tab
You can edit any tab online and save it as your Personal.

You can edit, replace or remove any tab part or add personal notes – all changes will be seen only by you.

Personal tabs can be accessed anytime from any device, even offline.
Learn more »
comments
print report bad tab
3 comments total.
0 reply
-andi- 31 Jan 09, 2007 10:48 AM

My mistake..

Verse 1 is really:
e|-----0---0---0------------------------------------------|
B|---1---1---1----0-3-0-3-0-3----1---1---1--0-3-0-3-0-3---| (x4)
G|-----------------------------2---2---2------------------|
D|--------------------------------------------------------|
A|--------------------------------------------------------|
E|--------------------------------------------------------|

and the part after the chorus is supposed to be...

e|---------------8(let ring)—20(let ring)---|
B|---1(let ring)—---------------------------| (x1)
G|------------------------------------------|
D|------------------------------------------|
A|------------------------------------------|
E|------------------------------------------|

0 reply
Supadude 10 Mar 06, 2007 06:52 AM

this sux except the thing after the first chorus and James Morris "solo":)

0 reply
Supadude 10 Mar 06, 2007 06:52 AM

the thing i wrote before..

guest
You may want to rate the tab now too:
select rating
Wanna post a correction for this tab? Suggest correction