Oops, an error
Loading. Please wait.

Damn Damn Leash tab

646 views 1 this week
no commentswrite comment
1 2 3 4 5
2 more votes to show rating
add to favorites
×
Save as Personal and add changes to this tab that will be seen only by you. Learn more ›
×
You can save this tab as Personal to edit and correct it or add notes. All changes will be seen only by you. Learn more »
launch autoscroll
font size
0
reset
how to read this tab
guitar tuner
edit
Autoscroll
slow
fast
+/-
esc
set tempo
stop
Author
Difficulty
Tabbed by:pinkbowtie
Email:halflingsleaf@hotmail.com

Tuning: normal tuning

Intro:

e|--7-7--9-9--7-7--9-9-9-9--4-4-4-4--7-7-7-7--7-7--9-9--7-7--9-9-9-9-4-4-4-4-|
B|--7-7--9-9--7-7--9-9-9-9--4-4-4-4--7-7-7-7--7-7--9-9--7-7--9-9-9-9-4-4-4-4-|
G|--7-7--9-9--7-7--9-9-9-9--4-4-4-4--7-7-7-7--7-7--9-9--7-7--9-9-9-9-4-4-4-4-|
D|--7-7--9-9--7-7--9-9-9-9--4-4-4-4--7-7-7-7--7-7--9-9--7-7--9-9-9-9-4-4-4-4-|
A|--7-7--7-7--7-7--7-7-7-7--2-2-2-2--5-5-5-5--7-7--7-7--7-7--7-7-7-7-2-2-2-2-|
E|--5-5-------5-5-----------------------------5-5-------5-5------------------|
               (let it ring)
e|-7-7-7-7--7-------------------7/9-9-9-9--11-10-9--7/9-9-9-9--11-10-9-------|
B|-7-7-7-7--7-------------------7/9-9-9-9--11-10-9--7/9-9-9-9--11-10-9-------|
G|-7-7-7-7--7-------------------7/9-9-9-9--11-10-9--7/9-9-9-9--11-10-9-------|
D|-7-7-7-7--7-------------------7/9-9-9-9--11-10-9--7/9-9-9-9--11-10-9-------|
A|-5-5-5-5--5-------------------7/9-9-9-9--11-10-9--7/9-9-9-9--11-10-9-------|
E|------------------------------5/7-7-7-7---9--8-7--5/7-7-7-7---9--8-7-------|
CHORUS :      "you've got me on a leash a damn damn leash, and it hard enough
                                   to be myself"
e|--7/9-9-9-9--11-10-9--7/9-9-9-9--11-10-9-----------------------------------|
B|--7/9-9-9-9--11-10-9--7/9-9-9-9--11-10-9-----------------------------------|
G|--7/9-9-9-9--11-10-9--7/9-9-9-9--11-10-9-----------------------------------|
D|--7/9-9-9-9--11-10-9--7/9-9-9-9--11-10-9-----------------------------------|
A|--7/9-9-9-9--11-10-9--7/9-9-9-9--11-10-9-----------------------------------|
E|--5/7-7-7-7---9--8-7--5/7-7-7-7---9--8-7-----------------------------------|
           "you've got me on a leash a damn damn leash, and it hard enough to
                                    be myself"

VERSE:

e|--7-7--9-9--7-7--9-9-9-9--4-4-4-4--7-7-7-7--7-7--9-9--7-7--9-9-9-9-4-4-4-4-|
B|--7-7--9-9--7-7--9-9-9-9--4-4-4-4--7-7-7-7--7-7--9-9--7-7--9-9-9-9-4-4-4-4-|
G|--7-7--9-9--7-7--9-9-9-9--4-4-4-4--7-7-7-7--7-7--9-9--7-7--9-9-9-9-4-4-4-4-|
D|--7-7--9-9--7-7--9-9-9-9--4-4-4-4--7-7-7-7--7-7--9-9--7-7--9-9-9-9-4-4-4-4-|
A|--7-7--7-7--7-7--7-7-7-7--2-2-2-2--5-5-5-5--7-7--7-7--7-7--7-7-7-7-2-2-2-2-|
E|--5-5-------5-5-----------------------------5-5-------5-5------------------|
   "well i've got my problem over her you've got yours over there, so stop
          throwing shit on me because you know its

e|-7-7-7-7-------------------------------------------------------------------|
B|-7-7-7-7-------------------------------------------------------------------|
G|-7-7-7-7-------------------------------------------------------------------|
D|-7-7-7-7-------------------------------------------------------------------|
A|-5-5-5-5-------------------------------------------------------------------|
E|---------------------------------------------------------------------------|
 not fair"

then back to the Chorus

theres a middle bit which i am not sure about but i think it may go

e|---------------------------------------------------------------------------|
B|---------------------------------------------------------------------------|
G|---------------------------------------------------------------------------|
D|---------------------------------------------------------------------------|
A|-2-/-4-/-2-/-7-/-2-/-4-/-2-/-7-/-2-/-4-/-2-/-7-/-2-/-4-/-2-/-7-/-----------|
E|---------------------------------------------------------------------------|
 "round and around ad and round etc."
e|---------------------------------------------------------------------------|
B|---------------------------------------------------------------------------|
G|---------------------------------------------------------------------------|
D|---------------------------------------------------------------------------|
A|-2-/-4-/-2-/-7-/-2-/-4-/-2-/-7-/-2-/-4-/-2-/-7-/-2-/-4-/-2-/-7-/-----------|
E|---------------------------------------------------------------------------|
 "round and around ad and round etc. aaaaaaaahhhhhhhhhhhhhh!!!"

Then repeat everything apart from middle part until the end, if you listen to the song 
will know what i mean.


Also the rhythms are only basic, if you listen to the song im dure you can figure out 
own strumming patterns and rhythms.

Any queries  or correction just email me,
thanks to Alex D who helped me get started on this tab.

            
            
Suggest correction
Creating personal tab
Creating personal tab
You can edit any tab online and save it as your Personal.

You can edit, replace or remove any tab part or add personal notes – all changes will be seen only by you.

Personal tabs can be accessed anytime from any device, even offline.
Learn more »
Give kudos to tab author, rate the tab!
1 2 3 4 5
comments
print report bad tab
guest
You may want to rate the tab now too:
select rating
Wanna post a correction for this tab? Suggest correction