Oops, an error
Loading. Please wait.

Force Of Nature chords

version 3
version 3

Whole song

  • This tab combines both the intro and the strumming... Show more
  • This is my tab and chords for Force Of Nature by B... Show more
7,769 views 57 this week
5 commentsread comments
1 2 3 4 5
x 9
add to favorites
×
Save as Personal and add changes to this tab that will be seen only by you. Learn more ›
×
You can save this tab as Personal to edit and correct it or add notes. All changes will be seen only by you. Learn more »
launch autoscroll
font size
0
reset
transpose
0
reset
simplify chords
display chords
guitar tuner
edit
Autoscroll
slow
fast
+/-
esc
set tempo
stop
Author
Difficulty
Strumming
There is no strumming pattern for this song yet. and get +5 IQ
-------------------------------------------------------------------------------
                             Force Of Nature - Bea Miller
-------------------------------------------------------------------------------
Intro tabbed by: Victoria
E-mail: vmanagad@icloud.com

The intro instrumental was initially derived from the tab submitted by Sean Griffin. He did an awesome job, 
but I'm a lazy person so I figured out a much more simpler way where you don't have to move around the fret 
board so much. lol 

The rest of the song is submitted by kyles.l, so shout out to her. I added her's as well just because, again 
I'm lazy, I like everything all in one. 

Tuning: Standard (no capo needed)

Chords:

Em:   x22033
C:    x32033
G:    320033
Dsus: xx0233



[Intro]

(Can be played through the whole song) 

Chords: 

      Em          C          G          Dsus
e|----------3-----------3---------3---------3--------------------------------|
B|----------3-----------3---------3---------3--------------------------------|
G|------0------------0----------0---------0----------------------------------|   
D|--------------------------------------0------------------------------------|
A|----------------3----------------------------------------------------------|
E|----0----------------------3-----------------------------------------------|(x2)


[Verse 1]

Em                       C               G      Dsus
 I don't know why but my hands are shaking
       Em                   C                 G     Dsus    
 I can see you coming and I stand here waiting
        Em                     C            G    Dsus
 Yeah I get tongue tied in the conversation
         Em                C        G    Dsus
 It's an F'd up, bad, sick situation


[Hook]

                   Em          C                G    
 I tried to tie my heart down, board up all the windows
Dsus             Em
 Oh but it's too late now
   C                  G   Dsus
 I let you get too close
                      Em     C                  G
 I know I should take cover, hide inside these four walls
     Dsus      Em    C       G  Dsus
 But baby I surrender, it all


[Chorus]

                 Em       C
 'Cause you're a force of nature
G                     Dsus
 Look at what you've done
       Em        C     G                 Dsus         
 I can taste the danger but I don't wanna run
     Em            C                 G           Dsus
 So pull me to the ground and I won't put up a fight
       Em      C     G                  Dsus           Em  C  
 I'm a caution taker, but baby you're a force of nature


[Solo]

G              Dsus 
 Baby you're a force of nature


[Verse 2]

             Em                    C             G  Dsus
 I feel your lips move in and they take me under
           Em                     C                G  Dsus
 You know just what to do, how to make me want you
        Em                 C             G  Dsus
 And I know I'll be broken when it's over
         Em              C              G  Dsus
 Oh but I can't help but pull you closer
                   

[Hook]

                    Em          C                G    
 I tried to tie my heart down, board up all the windows
Dsus             Em
 Oh but it's too late now
   C                  G   Dsus
 I let you get too close


[Chorus]

                 Em       C
 'Cause you're a force of nature
G                     Dsus
 Look at what you've done
       Em        C     G                 Dsus         
 I can taste the danger but I don't wanna run
     Em            C                 G           Dsus
 So pull me to the ground and I won't put up a fight
       Em      C     G                  Dsus           Em  C  
 I'm a caution taker, but baby you're a force of nature


[Solo]


[Bridge]

Em                  C
 I'll be here 'till we collide
G                Dsus
 I don't care if I survive
      Em          C             
 So crash into me one more time
G    Dsus 
 Yeah, yeah, oh


[Chorus]

                 Em       C
 'Cause you're a force of nature
G                     Dsus
 Look at what you've done
       Em        C     G                 Dsus         
 I can taste the danger but I don't wanna run
     Em            C                 G           Dsus
 So pull me to the ground and I won't put up a fight
       Em      C     G                  Dsus           Em  C  
 I'm a caution taker, but baby you're a force of nature
G              Dsus            Em  C
 Baby you're a force of nature
G              Dsus            Em  C
 Baby you're a force of nature (x2)
Suggest correction
Creating personal tab
Creating personal tab
You can edit any tab online and save it as your Personal.

You can edit, replace or remove any tab part or add personal notes – all changes will be seen only by you.

Personal tabs can be accessed anytime from any device, even offline.
Learn more »
comments
print report bad tab
5 comments total. Showing first comments.
0 reply
morndorff 10 Jul 23, 2015 05:59 AM

Correction on the second bass note of your tab-should be a 3 not a 2 (C chord).

0 reply
theresestuart 10 Aug 25, 2015 05:30 PM

e|---15--14--12------12------------------------------------------------|
B|---------------15------15--12----------------------------------------|
G|---------------------------------------------------------------------| x2
D|---------------------------------------------------------------------|
A|---------------------------------------------------------------------|
E|---------------------------------------------------------------------|

This is the Solo Instrumental after the second chorus. I believe it is correct.

0 reply
mtnichols 10 Jan 03, 2016 01:44 PM

youre almost 100% he slides to 17 if you listen closely, you have the corrects notes though, good ear!

e|---15--14--12--------------------------------------------------------|
B|---------------15/17--15--12-----------------------------------------|
G|---------------------------------------------------------------------| x2
D|---------------------------------------------------------------------|
A|---------------------------------------------------------------------|
E|---------------------------------------------------------------------|

guest
You may want to rate the tab now too:
select rating
Wanna post a correction for this tab? Suggest correction