Oops, an error
Loading. Please wait.

Be Nothing bass

307 views 36 this week
1 commentread comment
1 2 3 4 5
2 more votes to show rating
add to favorites
×
Save as Personal and add changes to this tab that will be seen only by you. Learn more ›
×
You can save this tab as Personal to edit and correct it or add notes. All changes will be seen only by you. Learn more »
launch autoscroll
font size
0
reset
guitar tuner
edit
Autoscroll
slow
fast
+/-
esc
set tempo
stop
4/4

[Intro]                                                            
G|------11--1110----------10----10|------11----10----------10----10|
D|--------------------------------|--------------------------------|
A|--------------------------------|--------------------------------|
E|9-------------------9-------9---|9---------9---------9-------9---|
                                                                     
G|------8-----8-----------8-----8-|------11----11----------11----11|
D|--------------------------------|--------------------------------|
A|--------------------------------|9---------9---------9-------9---|
E|7---------7---------7-------7---|--------------------------------| 
                                                                    
G|------11----10----------10----10|------11----10----------10----10|
D|--------------------------------|--------------------------------|
A|--------------------------------|--------------------------------|
E|9-------------------9-------9---|9---------9---------9-------9---|
                                                                    
G|------8-----8-----------8-----8-|------11----11----------11----11|
D|--------------------------------|--------------------------------|
A|--------------------------------|9---------9---------9-------9---|
E|7---------7---------7-------7---|--------------------------------|
 
[Verse]                                                            
G|------11----10----------10----10|------11----10----------10----10|
D|--------------------------------|--------------------------------|
A|--------------------------------|--------------------------------|
E|9-------------------9-------9---|9---------9---------9-------9---| 
                                                                    
G|------8-----8-----------8-----8-|------11----11----------11----11|
D|--------------------------------|--------------------------------|
A|--------------------------------|9---------9---------9-------9---|
E|7---------7---------7-------7---|--------------------------------| 
                                                                    
G|------11----10----------10----10|------11----10----------10----10|
D|--------------------------------|--------------------------------|
A|--------------------------------|--------------------------------|
E|9-------------------9-------9---|9---------9---------9-------9---|
                                                                    
G|------8-----8-----------8-----8-|------11----11----------11----11|
D|--------------------------------|--------------------------------|
A|--------------------------------|9---------9---------9-------9---|
E|7---------7---------7-------7---|--------------------------------|
 
[Interlude]                                                        
G|------11----10----------10----10|------11----10----------10----10|
D|--------------------------------|--------------------------------|
A|--------------------------------|--------------------------------|
E|9-------------------9-------9---|9---------9---------9-------9---|
                                                                    
G|------8-----8-----------8-----8-|------11----11----------11----11|
D|--------------------------------|--------------------------------|
A|--------------------------------|9---------9---------9-------9---|
E|7---------7---------7-------7---|--------------------------------|
                                                                     
G|------11----10----------10----10|------11----10----------10----10|
D|--------------------------------|--------------------------------|
A|--------------------------------|--------------------------------|
E|9-------------------9-------9---|9---------9---------9-------9---| 
                                                                    
G|------8-----8-----------8-----8-|------11----11----------11----11|
D|--------------------------------|--------------------------------|
A|--------------------------------|9---------9---------9-------9---|
E|7---------7---------7-------7---|--------------------------------|
 
[Verse]                                                            
G|------11----10----------10----10|------11----10----------10----10|
D|--------------------------------|--------------------------------|
A|--------------------------------|--------------------------------|
E|9-------------------9-------9---|9---------9---------9-------9---|
                                                                     
G|------8-----8-----------8-----8-|------11----11----------11----11|
D|--------------------------------|--------------------------------|
A|--------------------------------|9---------9---------9-------9---|
E|7---------7---------7-------7---|--------------------------------|
                                                                     
G|------11----10----------10----10|------11----10----------10----10|
D|--------------------------------|--------------------------------|
A|--------------------------------|--------------------------------|
E|9-------------------9-------9---|9---------9---------9-------9---|
                                                                    
G|------8-----8-----------8-----8-|------11----11----------11----11|
D|--------------------------------|--------------------------------|
A|--------------------------------|9---------9---------9-------9---|
E|7---------7---------7-------7---|--------------------------------|
 
[Chorus]                                                           
G|------11----10----------10----10|------11----10----------10----10|
D|--------------------------------|--------------------------------|
A|--------------------------------|--------------------------------|
E|9-------------------9-------9---|9---------9---------9-------9---|
                                                                     
G|------8-----8-----------8-----8-|------11----11----------11----11|
D|--------------------------------|--------------------------------|
A|--------------------------------|9---------9---------9-------9---|
E|7---------7---------7-------7---|--------------------------------|
                                                                     
G|------11----10----------10----10|------11----10----------10----10|
D|--------------------------------|--------------------------------|
A|--------------------------------|--------------------------------|
E|9-------------------9-------9---|9---------9---------9-------9---|
                                                                     
G|------8-----8-----------8-----8-|------11----11----------11----11|
D|--------------------------------|--------------------------------|
A|--------------------------------|9---------9---------9-------9---|
E|7---------7---------7-------7---|--------------------------------|
 
[Middle 8]                                                         
G|------11----10----------10----10|------11----10----------10----10|
D|--------------------------------|--------------------------------|
A|--------------------------------|--------------------------------|
E|9-------------------9-------9---|9---------9---------9-------9---|
                                                                     
G|------8-----8-----------8-----8-|------11----11----------11----11|
D|--------------------------------|--------------------------------|
A|--------------------------------|9---------9---------9-------9---|
E|7---------7---------7-------7---|--------------------------------|
                                                                     
G|------11----10----------10----10|------11----10----------10----10|
D|--------------------------------|--------------------------------|
A|--------------------------------|--------------------------------|
E|9-------------------9-------9---|9---------9---------9-------9---|
                                                                    
G|------8-----8-----------8-----8-|------11----11----------11----11|
D|--------------------------------|--------------------------------|
A|--------------------------------|9---------9---------9-------9---|
E|7---------7---------7-------7---|--------------------------------|

[Fast Part]                                                        
G|------------6-----------6---6---|------------6-----------6---6---|
D|----6---------------6-----------|----6---------------6-----------|
A|4-4---4-4-4---4-4-4---4---------|4-4---4-4-4---4-4-4---4---------|
E|--------------------------------|--------------------------------| 
                                                                    
G|4-4-4-4-4-4-4-4-4-4-4-4-4-4-4-6-|------------------------------1-|
D|--------------------------------|4-4-4-4-4-4-4-4-4-4-4-4-4-4-4---|
A|--------------------------------|--------------------------------|
E|--------------------------------|--------------------------------|
 
[Chorus]                                                           
G|------------6-----------6---6---|------------6-----------6---6---|
D|----6---------------6-----------|----6---------------6-----------|
A|4-4---4-4-4---4-4-4---4---------|4-4---4-4-4---4-4-4---4---------|
E|--------------------------------|--------------------------------| 
                                                                    
G|4-4-4-4-4-4-4-4-4-4-4-4-4-4-4-6-|------------------------------1-|
D|--------------------------------|4-4-4-4-4-4-4-4-4-4-4-4-4-4-4---|
A|--------------------------------|--------------------------------|
E|--------------------------------|--------------------------------|
                                                                    
G|------------6-----------6---6---|------------6-----------6---6---|
D|----6---------------6-----------|----6---------------6-----------|
A|4-4---4-4-4---4-4-4---4---------|4-4---4-4-4---4-4-4---4---------|
E|--------------------------------|--------------------------------| 
                                                                    
G|4-4-4-4-4-4-4-4-4-4-4-4-4-4-4-6-|------------------------------1-|
D|--------------------------------|4-4-4-4-4-4-4-4-4-4-4-4-4-4-4---|
A|--------------------------------|--------------------------------|
E|--------------------------------|--------------------------------|
 
[Solo]                                                             
G|------------6-----------6---6---|------------6-----------6---6---|
D|----6---------------6-----------|----6---------------6-----------|
A|4-4---4-4-4---4-4-4---4---------|4-4---4-4-4---4-4-4---4---------|
E|--------------------------------|--------------------------------| 
                                                                    
G|4-4-4-4-4-4-4-4-4-4-4-4-4-4-4-6-|------------------------------1-|
D|--------------------------------|4-4-4-4-4-4-4-4-4-4-4-4-4-4-4---|
A|--------------------------------|--------------------------------|
E|--------------------------------|--------------------------------| 
                                                                    
G|------------6-----------6---6---|------------6-----------6---6---|
D|----6---------------6-----------|----6---------------6-----------|
A|4-4---4-4-4---4-4-4---4---------|4-4---4-4-4---4-4-4---4---------|
E|--------------------------------|--------------------------------|
                                                                    
G|4-4-4-4-4-4-4-4-4-4-4-4-4-4-4-6-|------------------------------1-|
D|--------------------------------|4-4-4-4-4-4-4-4-4-4-4-4-4-4-4---|
A|--------------------------------|--------------------------------|
E|--------------------------------|--------------------------------| 
                                                                    
G|------------6-----------6---6---|------------6-----------6---6---|
D|----6---------------6-----------|----6---------------6-----------|
A|4-4---4-4-4---4-4-4---4---------|4-4---4-4-4---4-4-4---4---------|
E|--------------------------------|--------------------------------| 
                                                                    
G|4-4-4-4-4-4-4-4-4-4-4-4-4-4-4-6-|------------------------------1-|
D|--------------------------------|4-4-4-4-4-4-4-4-4-4-4-4-4-4-4---|
A|--------------------------------|--------------------------------|
E|--------------------------------|--------------------------------| 
                                                                    
G|------------6-----------6---6---|------------6-----------6---6---|
D|----6---------------6-----------|----6---------------6-----------|
A|4-4---4-4-4---4-4-4---4---------|4-4---4-4-4---4-4-4---4---------|
E|--------------------------------|--------------------------------|
                                                                     
G|4-4-4-4-4-4-4-4-4-4-4-4-4-4-4-6-|------------------------------1-|
D|--------------------------------|4-4-4-4-4-4-4-4-4-4-4-4-4-4-4---|
A|--------------------------------|--------------------------------|
E|--------------------------------|--------------------------------|
 
[Instrumental]                                                       
G|--------------------------------|--------------------------------|
D|--------------------------------|--------------------------------|
A|4-----------4-----------4-------|4-----------4-----------4-------|
E|--------------------------------|--------------------------------|
                                                                    
G|--------------------------------|--------------------------------|
D|--------------------------------|--------------------------------|
A|2-----------2-----------2-------|--------------------------------|
E|--------------------------------|2-----------2-----------2-------|
 
[Outro]                                                            
G|------------6-------------------|----11--10----------------------|
D|--------------------------------|--------------------9-----8-----|
A|4-------------------------------|----------------------------9---|
E|--------------------------------|--------------------------------|
                                                                     
G|--------------------------------|--------------------------------|
D|------------4-------------------|--------------------------------|
A|2-------------------------------|--------------------------------|
E|--------------------------------|2-------2-------2---------------|
                                                                    
G|------------6-------------------|6-----------6-------8-----------|
D|--------------------------------|--------------------------------|
A|4-------------------------------|--------------------------------|
E|--------------------------------|------9-------------------------|
                                                                    
G|--------------------------------|--------------------------------|
D|------------4-------------------|--------------------------------|
A|2-------------------------------|--------------------------------|
E|--------------------------------|2-------------------------------| 
                                                                    
G|------------6-------------------|----11--10----------------------|
D|--------------------------------|--------------------9-----8-----|
A|4-------------------------------|----------------------------9---|
E|--------------------------------|9-----------9---9---------------|
                                                                    
G|--------------------------------|--------------------------------|
D|------------4-------------------|--------------------------------|
A|2-------------------------------|--------------------------------|
E|--------------------------------|2-------------------------------|

            
            
Suggest correction
Creating personal tab
Creating personal tab
You can edit any tab online and save it as your Personal.

You can edit, replace or remove any tab part or add personal notes – all changes will be seen only by you.

Personal tabs can be accessed anytime from any device, even offline.
Learn more »
Give kudos to tab author, rate the tab!
1 2 3 4 5
comments
print report bad tab
1 comment total.
+1 reply
littlec56 20 Jul 07, 2017 02:57 PM

pls do May 1st or Down the line

guest
You may want to rate the tab now too:
select rating
Wanna post a correction for this tab? Suggest correction