Oops, an error
Loading. Please wait.

Calyer Tab

2,720 views 24 this week
1 commentread comment
1 2 3 4 5
accurate
x 3
add to favorites
launch autoscroll
font size
0
reset
how to read this tab
guitar tuner
Tab Pro tools
  • play this tab
  • loop segment
  • change instrument
  • show fretboard
  • metronome
×
Best way to learn
"Calyer"
Autoscroll
slow
fast
+/-
esc
set tempo
stop
INTRO

guitar 1:
|-7------7-----------7------7----------|
|---8-77---8-7---------8-77---8-7------|
|--------------777----------------777--|
|--------------------------------------|
|--------------------------------------|
|--------------------------------------|

|-10------7-----------7------7----------|
|----8-77---8-7---------8-77---8-7------|
|---------------777----------------777--|
|---------------------------------------|
|---------------------------------------|
|---------------------------------------|

|-10------7----------|
|----8-77---8-7------|
|---------------777--|
|--------------------|
|--------------------|
|--------------------|

VERSE:

guitar 1:
|--------------------------------|
|--------------------------------|
|--777777777-999-555555555-999---|
|--------------------------------|
|--------------------------------|
|--------------------------------|

|--------------------------------|
|--------------------------------|
|--777777777-999-555555-4444444--|
|--------------------------------|
|--------------------------------|
|--------------------------------|

(not sure about this part, but the whole
verse is basically D C D Bm - so i think
thats close.):
|--------------------------------------|
|----7---7---7---7---7---7---7---888---|
|--7---7---7---7---7---7---7---7-------|
|--------------------------------------|
|--------------------------------------|
|--------------------------------------|

|--------------------------------------|
|----5---5---5---5---5---5---5---777---|
|--5---5---5---5---5---5---5---5-------|
|--------------------------------------|
|--------------------------------------|
|--------------------------------------|

|--------------------------------------|
|----7---7---7---7---7---7---7---888---|
|--7---7---7---7---7---7---7---7-------|
|--------------------------------------|
|--------------------------------------|
|--------------------------------------|

|--------------------------------------|
|----5---5---5---5---3---3---3---3-----|
|--5---5---5---5---4---4---4---4-------|
|--------------------------------------|
|--------------------------------------|
|--------------------------------------|

INTRO AGAIN
VERSE AGAIN
INTRO AGAIN

BRIDGE:
|-----------------------------------------------------|
|----7---7---7---7---7---7---7---10---10---10---10----|
|--7---7---7---7---7---7---7---7----7----7----7----7--|
|-----------------------------------------------------|
|-----------------------------------------------------|
|-----------------------------------------------------|


|------------------------------------|
|----------------------2-0---2-0-----|
|------2------2------2-----2---------|
|----0---0------4--0-----------------|
|--2-------2-------------------------|
|------------------------------------|
comments
We did not receive enough feedback on this tab! Please rate:
print report bad tab
1 2 3 4 5
1 comment total.
0 reply
koko.cavani wrote on September 19 2013, 12:07 am

|---------9-------------------------------7-----7^9------------------------
|-------------------------------7----10--------------10-----88--77---------
|--9^11------11---9-------7----------------------------7-----------99----77
|-----------------------------------------------------------------------
|--------------------------------------------------------------------
|----------------------------------------------------------------

|--------------7---------------------------------------------
|---77----10-------88---77-------------------------------
|----------------------------99----77---------------------
|----------------------------------------------------------------
|--------------------------------------------------------------
|-------------------------------------------------------------

|-------------------------------------------------------------
|--------------------------------------------------------------
|------------4------------------------------------------------
|---44----7--------55---44------------------------------------
|----------------------------77-----55--------------------------
|----------------------------------------------------------------

|----------------------------------------------------------
|------7---------7---------------------------------------
|------7---------6---------------------------------------
|------7---------7-------------------------------------------
|-----------------------------------------------------------
|----------------------------------------------------------

I want to post or [tab]
guest
You may want to rate the tab now too:
select rating
Please do not post tabs as comments. Select "correction" instead!