Oops, an error
Loading. Please wait.

Clash The Truth intro tab

version 1
version 1

Intro

Whole song

307 views 1 this week
no commentswrite comment
1 2 3 4 5
2 more votes to show rating
add to favorites
×
Save as Personal and add changes to this tab that will be seen only by you. Learn more ›
×
You can save this tab as Personal to edit and correct it or add notes. All changes will be seen only by you. Learn more »
launch autoscroll
font size
0
reset
how to read this tab
guitar tuner
edit
Autoscroll
slow
fast
+/-
esc
set tempo
stop
BEACH FOSSILS // CLASH THE TRUTH
Guitarist - Tommy Davidson (Dustin only sings on this track)
Album - Clash The Truth



The other version of this song was right however implied it was in standard - it is in Drop D.
Goad had correctly typed it but hadn't mentioned the tuning.

e|----------------|-----------------|
B|----------------|-----------------|
G|------------3-3-|-------------3-3-|
D|-----3-3--------|-----3-3---------|
A|-1-1-----11-----|-----------------|
D|----------------|-1-1-----1-1-----|


Alternatively, can be played with a Capo on 1 and with open strings. This is how Tommy does it live, and how 
I do too. The guitar is effectively in EA#D#G#CF, which is one step up, with the bottom string dropped to E.

F |----------------|-----------------|
C |----------------|-----------------|
G#|------------2-2-|-------------2-2-|
D#|-----2-2--------|-----2-2---------|
A#|-0-0-----00-----|-----------------|
D |----------------|-0-0-----0-0-----|

            
            
Suggest correction
Creating personal tab
Creating personal tab
You can edit any tab online and save it as your Personal.

You can edit, replace or remove any tab part or add personal notes – all changes will be seen only by you.

Personal tabs can be accessed anytime from any device, even offline.
Learn more »
Give kudos to tab author, rate the tab!
1 2 3 4 5
comments
print report bad tab
guest
You may want to rate the tab now too:
select rating
Wanna post a correction for this tab? Suggest correction