Oops, an error
Loading. Please wait.

Crashed Out Tab

2,293 views 1 this week
no commentswrite comment
1 2 3 4 5
excellent!
x 5
add to favorites
launch autoscroll
font size
0
reset
how to read this tab
guitar tuner
Tab Pro tools
  • play this tab
  • loop segment
  • change instrument
  • show fretboard
  • metronome
×
Best way to learn
"Crashed Out"
Autoscroll
slow
fast
+/-
esc
set tempo
stop
Contributor
Difficulty
novice
Beach Fossils - Crashed Out
From their album Clash The Truth (Captured Tracks 2013).

Tabbed by Isaac Murguia, April 2013.
YouTube: Goadiroth

B = slight bend

INTRO:
  Gtr 1 "RIFF A"
e|-----------------------------------------|--------------------------|
B|-----------------------------------------|--------------------------|
G|-----------7777-7777---------------------|--------------------------|
D|-9999-9999---------------------7777-7777-|-0000-(x3)------4444-(x4)-|
A|---------------------9999-9999-----------|-----------2222-----------|
E|-----------------------------------------|--------------------------| [x2]
  Gtr 2
e|-------------7-7-|
B|-----7-7---------|
G|-7-7-----7-7-----|
D|-----------------|
A|-----------------|
E|-----------------| [x16]

VERSE: play Gtr 2 from INTRO [x16]

CHORUS:
  Gtr 1
e|-------------------------------------------------------------------------|
B|----------------------------------------------------10-10----------------|
G|-----------------------------------11-11-11-11-9999-------11-11-99-11-11-|
D|-7777-9999-12-12-12-12-11-11-11-11---------------------------------------|
A|-------------------------------------------------------------------------|
E|-------------------------------------------------------------------------| [x4]
  Gtr 2
e|-------------------------------------------|
B|-------------------------------------------|
G|-------------------------------------------|
D|---------------------7777-(x4)-9999-(x4)---|
A|-7777-(x4)-9999-(x4)-----------------------|
E|-------------------------------------------| [x1]

Repeat INTRO
Repeat CHORUS

CHORUS EXTENSION: (01:56)
  Gtr 1 & 2
e|-------------------------------------------------------------------------|
B|----------------------------------------------------10-10----------------|
G|-----------------------------------11-11-11-11-9999-------11-11-99-11-11-|
D|-7777-9999-12-12-12-12-11-11-11-11---------------------------------------|
A|-------------------------------------------------------------------------|
E|-------------------------------------------------------------------------|

e|---------------------------------------------------------------------|
B|---------------------------------------------------------------------|
G|-----------------------------------11-11-11-11-(x2)-11-11-11-11-(x2)-|
D|-7777-9999-12-12-12-12-11-11-11-11------------------b--b--b--b-------|
A|---------------------------------------------------------------------|
E|---------------------------------------------------------------------|

BRIDGE:
e|-------------------------------------------------|-------------------------|
B|-------10-10-------10-10-------12-12-------12-12-|----77----77----77----77-|
G|-11-11-------11-11-------11-11-------11-11-------|-99----99----99----99----|
D|-------------------------------------------------|-------------------------|
A|-------------------------------------------------|-------------------------|
E|-------------------------------------------------|-------------------------| [x3]

e|-------------------------------------------------|----------------------------|
B|-------10-10-------10-10-------12-12-------12-12-|----77----77-10-10-77----77-|
G|-11-11-------11-11-------11-11-------11-11-------|-99----99-------------99----|
D|-------------------------------------------------|----------------------------|
A|-------------------------------------------------|----------------------------|
E|-------------------------------------------------|----------------------------|

OUTRO:
  Gtr 1
e|-19-19-19-19-(x2)------------------17-17-17-17-(x2)------------------|
B|------------------17-17-17-17-(x2)------------------19-19-19-19-(x2)-|
G|---------------------------------------------------------------------|
D|---------------------------------------------------------------------|
A|---------------------------------------------------------------------|
E|---------------------------------------------------------------------| [x8]

Also, Gtr 2 is playing "RIFF A" (from INTRO)
And Gtr 3 is playing the BRIDGE

End!
comments
print report bad tab
I want to post or [tab]
guest
You may want to rate the tab now too:
select rating
Please do not post tabs as comments. Select "correction" instead!