Oops, an error
Loading. Please wait.

Daydream Tab

version 2
version 2

Whole song

5,896 views 12 this week
no commentswrite comment
1 2 3 4 5
x 3
add to favorites
launch autoscroll
font size
0
reset
how to read this tab
guitar tuner
Autoscroll
slow
fast
+/-
esc
set tempo
stop
Help us to improve Ultimate-Guitar.com Take our survey!
×
Author
Difficulty
novice
Beach Fossils - Daydream
From the self-titled album (Captured Tracks 2010).

Tabbed by Isaac Murguia, August 2012.
YouTube: Goadiroth

Intro Lead: (x4)
                 (x3)
e|------5-7-5---5---------------------|------5-7-5---5----------------------|
B|-7-7-7------7--75--7-------7--------|-7-7-7------7--75--7-------7---------|
G|---------------------777-----777-77-|---------------------777-----777-777-|
D|------------------------9-----------|------------------------9------------|
A|------------------------------------|-------------------------------------|
E|------------------------------------|-------------------------------------|

Intro Rhythm: (x4)
e|--------------------------------------------|
B|--------------------------------------------|
G|---------------------------------0----------|
D|-0-0-0245-4-2-42---------4-4-----0-------00-|
A|-----------------002-2-2-2-2-0-2----2-2-----|
E|--------------------------------------------|

Play Intro Rhythm (x8)
Play Intro Lead+Rhythm (x4)
Play Intro Rhythm (x4)

==============
==============

Bridge Lead:
               (x7)
e|-121212-12-101010-------10--------|-------------------------|
B|------------------12-10----12--12-|-10-8-888-8888-8888-8888-|
G|----------------------------------|-------------------------|
D|----------------------------------|-------------------------|
A|----------------------------------|-------------------------|
E|----------------------------------|-------------------------|

Bridge Rhythm:
         (x7)
e|-------------------|------------------------|
B|-5--------3--------|-5----------------------|
G|---0-0000---4-4444-|---0-000-0000-0000-0000-|
D|-------------------|------------------------|
A|-------------------|------------------------|
E|-------------------|------------------------|

==============
==============

Play Intro Lead+Rhythm (x4)

==============
==============

Outro Lead:
         (x3)
e|-------------------|-----------|
B|-7-7778-7-777-5--5-|-7-7777777-|
G|-------------------|-----------|
D|-------------------|-----------|
A|-------------------|-----------|
E|-------------------|-----------|

Outro Rhythm is the same as Intro.

End. :D
Suggest correction
Give kudos to tab author, rate the tab!
1 2 3 4 5
comments
print report bad tab
guest
You may want to rate the tab now too:
select rating
Wanna post a correction for this tab? Suggest correction