Oops, an error
Loading. Please wait.

Desert Sand Bass Tab

1,120 views 3 this week
no commentswrite comment
1 2 3 4 5
please rate
add to favorites
launch autoscroll
font size
0
reset
guitar tuner
Autoscroll
slow
fast
+/-
esc
set tempo
stop
Help us to improve Ultimate-Guitar.com Take our survey!
×
Difficulty
intermediate
Intro/Break
G------------------------------------------------------------------------------|
D------------------------------------------------------------------------------|
A------------------------------------------------------------------------------|
E-5-55/12121212-111111111111---(x4)--------------------------------------------|

Verse
G------------------------------------------------------------------------------|
D---7\---5\-----------7\---5\--------------------------------------------------|
A-----------5-3------------------5-3-5-----------------------------------------|
E-5---5---3-----3---5----5-----5------------(x5)-------------------------------|

Alternate these two riffs and that's basically the whole song.
Suggest correction
Give kudos to tab author, rate the tab!
1 2 3 4 5
comments
print report bad tab
guest
You may want to rate the tab now too:
select rating
Please do not post tabs as comments. Select "correction" instead!