Oops, an error
Loading. Please wait.

Golden Age Tab

version 2
version 2

Whole song

518 views 3 this week
no commentswrite comment
1 2 3 4 5
3 more votes to show rating
add to favorites
launch autoscroll
font size
0
reset
how to read this tab
guitar tuner
Autoscroll
slow
fast
+/-
esc
set tempo
stop
Help us to improve Ultimate-Guitar.com Take our survey!
×
Tuning: standard

INTRO:
guitar 2
e|---------------------------------------|
B|---------------------------------------|
G|---------------------------------------|
D|--77777777777777-66-44444444444444-66--|
A|---------------------------------------|
E|---------------------------------------|

guitar 1
e|-9----------------9---------------9---------------12----12----12----12--|
B|---10---10---10-----10---10---10----10---10---10-----10----10----10-----|
G|------9----9-----------9----9----------9----9---------------------------|
D|------------------------------------------------------------------------|
A|------------------------------------------------------------------------|
E|------------------------------------------------------------------------|

VERSE
only guitar 2

CHORUS
guitar 1 (four times - last time only the 9 at the
end without three times 6th fret before)
e|----------------------------------------------------|
B|---9---9---9---10---10-12---12---7---7---7----------|
G|-9---9---9---9----9-------9----7---7---7---666-999--|
D|----------------------------------------------------|
A|----------------------------------------------------|
E|----------------------------------------------------|

guitar 2
e|--------------------------------------|
B|--------------------------------------|
G|--------------------------------------|
D|--66666666-7779997-44444444-22222222--|
A|--------------------------------------|
E|--------------------------------------|

INTRO RIFF
VERSE 2
CHORUS
INTRO RIFF
VERSE 3
CHORUS
INTRO RIFF
Suggest correction
Give kudos to tab author, rate the tab!
1 2 3 4 5
comments
print report bad tab
guest
You may want to rate the tab now too:
select rating
Wanna post a correction for this tab? Suggest correction