Oops, an error
Loading. Please wait.

Lessons Tab

version 2
version 2

Whole song

1,050 views 1 this week
no commentswrite comment
1 2 3 4 5
please rate
add to favorites
launch autoscroll
font size
0
reset
how to read this tab
guitar tuner
Autoscroll
slow
fast
+/-
esc
set tempo
stop
Help us to improve Ultimate-Guitar.com Take our survey!
×
Author
Difficulty
novice
Beach Fossils - Lessons
B-side from the Shallow 7" (captured tracks 2012).

Tabbed by Isaac Murguia, July 2012.
YouTube: Goadiroth

INTRO:
         (x2)                   (x2)
e|----------12-----------|-9-------9-----------|
B|----10--------10----10-|---10-------10----10-|
G|-11----11--------11----|------11-------11----|
D|-----------------------|---------------------|
A|-----------------------|---------------------|
E|-----------------------|---------------------|

VERSE:
     (A)                                 
e|-12---9---|
B|-10---10--|      just listen to the song
G|-11---11--|      for strumming rhythm
D|----------| (x4) it's easy!
A|----------|
E|----------|

      (B)                     1.     2.
e|-101010--------------------|------|-------------------|
B|--------12-12-10--777------|------|-7-77-7777-77-7777-|
G|---------------------9-9-7-|------|-------------------|
D|---------------------------|-9----|-------------------|
A|---------------------------|------|-------------------|
E|---------------------------|------|-------------------|

CHORUS:
        (x2)
e|-----------------|---------------------|----------|
B|-----------------|---------------------|----------|
G|-----------------|-4-4-----------------|----------|
D|-4---4---4---4---|-----7---7---7---7---|---0---0--| (x2)
A|---5---5---5---5-|-------9---9---9---9-|-7---7----|
E|-----------------|---------------------|----------|

Repeat VERSE A (x2 only)

VERSE B VARIATION:            1.     2.
e|-101010--------------------|------|------|
B|--------12-12-10--777------|------|-7----|
G|---------------------9-9-7-|------|------|
D|---------------------------|-9----|------|
A|---------------------------|------|------|
E|---------------------------|------|------|

                              1.     2.
e|-101010--------------------|------|-------------------|
B|--------12-12-10--777------|------|-7-77-7777-77-7777-|
G|---------------------9-9-7-|------|-------------------|
D|---------------------------|-9----|-------------------|
A|---------------------------|------|-------------------|
E|---------------------------|------|-------------------|

Repeat CHORUS

BRIDGE:
      (x2)
e|-----------|----------------------|
B|-----------|----------------------|
G|-7777-7777-|-4--4--2222-2222------|
D|-----------|-----------------4--4-| (x2)
A|-----------|----------------------|
E|-----------|----------------------|

OUTRO:
      (x2)
e|-----------|------------------------|
B|-7777-7777-|-10--10--7777-7777-5--5-|
G|-----------|------------------------|
D|-----------|------------------------| (x6)
A|-----------|------------------------|
E|-----------|------------------------|
Suggest correction
What's this?
You can suggest a correction to this tab. Community and Mods will review your correction and vote to approve or reject it.
comments
We did not receive enough feedback on this tab! Please rate:
print report bad tab
1 2 3 4 5
guest
You may want to rate the tab now too:
select rating
Please do not post tabs as comments. Select "correction" instead!