Oops, an error
Loading. Please wait.

Out In The Way Tab

1,298 views 6 this week
no commentswrite comment
1 2 3 4 5
excellent!
x 2
add to favorites
launch autoscroll
font size
0
reset
how to read this tab
guitar tuner
Tab Pro tools
  • play this tab
  • loop segment
  • change instrument
  • show fretboard
  • metronome
Autoscroll
slow
fast
+/-
esc
set tempo
stop
Contributor
Difficulty
novice
Beach Fossils - Out In The Way (feat. Jack Tatum)
From the "What A Pleasure" EP (Captured Tracks 2011).

Tabbed by Isaac Murguia, December 2012.
YouTube: Goadiroth

INTRO A:
e|--------0-----2---0---0---------|
B|----4-----4-------------4---4---|
G|-4----4-----4-------4-----4---4-|
D|--------------------------------|
A|--------------------------------|
E|--------------------------------| (x4)

INTRO B:
e|-2-2-----------2-2---------------|-0-0-----------0-0---------------|
B|-----0-0-----------0-0-----0-0---|-----0-0-----------0-0-----0-0---|
G|---------1-1-1---------1-1-----1-|---------1-1-1---------1-1-----1-|
D|---------------------------------|---------------------------------|
A|---------------------------------|---------------------------------|
E|---------------------------------|---------------------------------| (x2)

VERSE A:                        (0:43)
e|---------------|    |--------------------------|
B|---------------|    |--------------------------|
G|---------------|    |---this-part-has-chords---|
D|----------9--6-|    |----i-don't-know-them!----|
A|-7----7-7------|    |--------------------------|
E|---------------| x2 |--------------------------|

Repeat INTRO A (x4)
Repeat INTRO B (x4)

VERSE B: (x2)
  Guitar 1
e|----------------|----------------|-----------------------|
B|----------------|----------------|-----------------------|
G|----------4-4---|-6--6-----4-4---|-8--8-6-6-4-4----4-----|
D|-6--6-4-4-----6-|------4-4-----6-|--------------4-4--6-4-|
A|----------------|----------------|-----------------------|
E|----------------|----------------|-----------------------|

  Guitar 2 (comes in on 2nd repetition)
e|----------------|----------------|-----------------------|
B|----------------|----------------|-----------------------|
G|----------------|----------------|-----------------------|
D|----------------|----------------|-----------------------|
A|----------2-2---|-4--4-----2-2---|-6--6-4-4-2-2----2-----|
E|-4--4-2-2-----4-|------2-2-----4-|--------------2-2--4-2-|

Repeat INTRO A (x4)

BRIDGE: (2:24)
  Guitar 1
e|------------------|----------------------|
B|------------------|----------------------|
G|------------------|----------------------|
D|-9-9-99--6-666-66-|-11-11-1111--6-666-66-|
A|------------------|----------------------|
E|------------------|----------------------|

e|----------------------------|-------------------------|
B|----------------------------|-------------------------|
G|----------------------------|-------------------------|
D|----------------------------|-9-9-99-/-13-131313-1313-|
A|-6--6--6-7-6-4--4-4-6-4-4-4-|-------------------------|
E|----------------------------|-------------------------|

  Guitar 2
e|--------2-------|---------------|    |----------------|---------------|
B|----4-----4-----|-4---7-4---4-0-|    |----0---4-0-----|-0---4-0---0---|
G|-4----4-----4-4-|---6-----6-----|    |----------------|---------------|
D|----------------|---------------|    |-6----0-----6-6-|---6-----6---6-|
A|----------------|---------------|    |----------------|---------------|
E|----------------|---------------| x2 |----------------|---------------|

e|--------2-------|---------------|
B|----4-----4-2---|-4---7-4---4-0-|
G|-4----4-------4-|---6-----6-----|
D|----------------|---------------|
A|----------------|---------------|
E|----------------|---------------|

Repeat VERSE B (x1)

OUTRO A:
e|-7---7---7----------------|
B|---9---9---9-----9\---4-0-|
G|--------------6-----4-----| this is a very simplified version
D|--------------------------| of what they actually play here...
A|--------------------------|
E|--------------------------| (x4)

OUTRO B:
e|-------------------------------|
B|-------------------------------|
G|-------------------------------|
D|-----1------------------/6-4---|
A|-2-4----------------2-4------2-|
E|-------2-4----2-4-2------------| (x6)

End.
comments
We did not receive enough feedback on this tab! Please rate:
print report bad tab
1 2 3 4 5
I want to post or [tab]
guest
You may want to rate the tab now too:
select rating
Please do not post tabs as comments. Select "correction" instead!