Oops, an error
Loading. Please wait.

Vacation Tab

version 2
version 2

Whole song

359 views 1 this week
no commentswrite comment
1 2 3 4 5
3 more votes to show rating
add to favorites
launch autoscroll
font size
0
reset
how to read this tab
guitar tuner
×
Best way to learn
"Vacation"
Autoscroll
slow
fast
+/-
esc
set tempo
stop
Difficulty
intermediate
This is just the way I've worked it out, not sure whether Beach Fossils actually play it 
like this. Sounds good to me though.

Tuning, tune the A string up a step so:

E A# D G B e

Guitar 1

e |----------------------------------------------------------------|
B |----------------------------------------------------------------|
G |----------------------------------------------------------------|
D |---2---5-----2-----0---3-----0------7---8-----7-----2---3-----2-|
A#|-2---2-----2-----0---0-----0------7---7-----7-----2---2-----2---|
E |----------------------------------------------------------------|

Guitar 2:

e |-------------------------------------------------------------|
B |-------------------------------------------------------------|
G |--0---0-0-0-----------------------2---2-2-3---2---0----------|
D |------------3---2---0---3---3-0-------------3---------3---2--|  x2
A#|-------------------------------------------------------------|
E |-------------------------------------------------------------|

---------------------------------------------------------------|
---------------------------------------------------------------|
---5---5-0-5-7---3---3-3---3-3-----2---2-2-3---2---0-----------|
---------------------------------------------3---------3---2---|
---------------------------------------------------------------|
---------------------------------------------------------------|

--------------------------------------------------------------|
-----------------------------------6---6-6-6-6-----5----------|
---5---5-0-5-7---3---3-3---3-3--------------------------------|
--------------------------------------------------------------|
--------------------------------------------------------------|
--------------------------------------------------------------|
Suggest correction
Give kudos to tab author, rate the tab!
1 2 3 4 5
comments
print report bad tab
guest
You may want to rate the tab now too:
select rating
Wanna post a correction for this tab? Suggest correction