Oops, an error
Loading. Please wait.

Without U Tab

2,305 views 84 this week
no commentswrite comment
1 2 3 4 5
x 10
add to favorites
launch autoscroll
font size
0
reset
how to read this tab
guitar tuner
×
Best way to learn
"Without U"
Autoscroll
slow
fast
+/-
esc
set tempo
stop
Author
Difficulty
novice
Tuning: Standard EADGBE

(This track is off of their EP "Boisad". Original song by Corbin (FKA Spooky Black)

e|-----------------------------------------------------------------------------------------------------|
B|-----------------------------------------------------------------------------------------------------|
G|-----------------------------------------------------------------------------------------------------|
D|-----------------------------------------------------------------------------------------------------|
A|-----------------------------------------------------------------------------------------------------|
E|-0-0-0-0-0-0-0-0-0-0-0-0-0-0-0-0-4-4-4-4-4-4-4-4-4-4-4-4-9-9-7-7-------------------------------------|

(chords during the "woo ooh's". listen to the strum pattern in the song, it is just simple up down's.)
e|-0--------4--------9----------7----------------------------------------------------------------------|
B|-0--------4--------9----------7----------------------------------------------------------------------|
G|-1--------5--------10---------8----------------------------------------------------------------------|
D|-2--------6--------11---------9----------------------------------------------------------------------|
A|-2--------6--------11---------9----------------------------------------------------------------------|
E|-0--------4--------9----------7----------------------------------------------------------------------|
Suggest correction
comments
print report bad tab
guest
You may want to rate the tab now too:
select rating
Wanna post a correction for this tab? Suggest correction